ISO-10303-21;
HEADER;
/* Generated by software containing ST-Developer
 * from STEP Tools, Inc. (www.steptools.com) 
 */
/* OPTION: using custom renumber hook */

FILE_DESCRIPTION(
/* description */ ('STEP AP214'),
/* implementation_level */ '2;1');

FILE_NAME(
/* name */ '01626',
/* time_stamp */ '2024-11-11T16:43:31+01:00',
/* author */ ('License CC BY-ND 4.0'),
/* organization */ ('CADENAS'),
/* preprocessor_version */ 'ST-DEVELOPER v19.3',
/* originating_system */ 'PARTsolutions',
/* authorisation */ '  ');

FILE_SCHEMA (('AUTOMOTIVE_DESIGN {1 0 10303 214 3 1 1}'));
ENDSEC;

DATA;
#10=PROPERTY_DEFINITION_REPRESENTATION(#14,#12);
#11=PROPERTY_DEFINITION_REPRESENTATION(#15,#13);
#12=REPRESENTATION('',(#16),#185);
#13=REPRESENTATION('',(#17),#185);
#14=PROPERTY_DEFINITION('pmi validation property','',#190);
#15=PROPERTY_DEFINITION('pmi validation property','',#190);
#16=VALUE_REPRESENTATION_ITEM('number of annotations',COUNT_MEASURE(0.));
#17=VALUE_REPRESENTATION_ITEM('number of views',COUNT_MEASURE(0.));
#18=SHAPE_REPRESENTATION_RELATIONSHIP('','',#123,#19);
#19=ADVANCED_BREP_SHAPE_REPRESENTATION('',(#121),#185);
#20=ORIENTED_EDGE('',*,*,#44,.T.);
#21=ORIENTED_EDGE('',*,*,#45,.F.);
#22=ORIENTED_EDGE('',*,*,#46,.F.);
#23=ORIENTED_EDGE('',*,*,#47,.T.);
#24=ORIENTED_EDGE('',*,*,#48,.T.);
#25=ORIENTED_EDGE('',*,*,#49,.F.);
#26=ORIENTED_EDGE('',*,*,#50,.F.);
#27=ORIENTED_EDGE('',*,*,#45,.T.);
#28=ORIENTED_EDGE('',*,*,#51,.T.);
#29=ORIENTED_EDGE('',*,*,#52,.F.);
#30=ORIENTED_EDGE('',*,*,#53,.F.);
#31=ORIENTED_EDGE('',*,*,#49,.T.);
#32=ORIENTED_EDGE('',*,*,#54,.T.);
#33=ORIENTED_EDGE('',*,*,#47,.F.);
#34=ORIENTED_EDGE('',*,*,#55,.F.);
#35=ORIENTED_EDGE('',*,*,#52,.T.);
#36=ORIENTED_EDGE('',*,*,#46,.T.);
#37=ORIENTED_EDGE('',*,*,#50,.T.);
#38=ORIENTED_EDGE('',*,*,#53,.T.);
#39=ORIENTED_EDGE('',*,*,#55,.T.);
#40=ORIENTED_EDGE('',*,*,#44,.F.);
#41=ORIENTED_EDGE('',*,*,#54,.F.);
#42=ORIENTED_EDGE('',*,*,#51,.F.);
#43=ORIENTED_EDGE('',*,*,#48,.F.);
#44=EDGE_CURVE('',#56,#57,#64,.T.);
#45=EDGE_CURVE('',#58,#57,#65,.T.);
#46=EDGE_CURVE('',#59,#58,#66,.T.);
#47=EDGE_CURVE('',#59,#56,#67,.T.);
#48=EDGE_CURVE('',#57,#60,#68,.T.);
#49=EDGE_CURVE('',#61,#60,#69,.T.);
#50=EDGE_CURVE('',#58,#61,#70,.T.);
#51=EDGE_CURVE('',#60,#62,#71,.T.);
#52=EDGE_CURVE('',#63,#62,#72,.T.);
#53=EDGE_CURVE('',#61,#63,#73,.T.);
#54=EDGE_CURVE('',#62,#56,#74,.T.);
#55=EDGE_CURVE('',#63,#59,#75,.T.);
#56=VERTEX_POINT('',#160);
#57=VERTEX_POINT('',#161);
#58=VERTEX_POINT('',#163);
#59=VERTEX_POINT('',#165);
#60=VERTEX_POINT('',#169);
#61=VERTEX_POINT('',#171);
#62=VERTEX_POINT('',#175);
#63=VERTEX_POINT('',#177);
#64=LINE('',#159,#76);
#65=LINE('',#162,#77);
#66=LINE('',#164,#78);
#67=LINE('',#166,#79);
#68=LINE('',#168,#80);
#69=LINE('',#170,#81);
#70=LINE('',#172,#82);
#71=LINE('',#174,#83);
#72=LINE('',#176,#84);
#73=LINE('',#178,#85);
#74=LINE('',#180,#86);
#75=LINE('',#181,#87);
#76=VECTOR('',#135,1000.);
#77=VECTOR('',#136,1000.);
#78=VECTOR('',#137,1000.);
#79=VECTOR('',#138,1000.);
#80=VECTOR('',#141,1000.);
#81=VECTOR('',#142,1000.);
#82=VECTOR('',#143,1000.);
#83=VECTOR('',#146,1000.);
#84=VECTOR('',#147,1000.);
#85=VECTOR('',#148,1000.);
#86=VECTOR('',#151,1000.);
#87=VECTOR('',#152,1000.);
#88=EDGE_LOOP('',(#20,#21,#22,#23));
#89=EDGE_LOOP('',(#24,#25,#26,#27));
#90=EDGE_LOOP('',(#28,#29,#30,#31));
#91=EDGE_LOOP('',(#32,#33,#34,#35));
#92=EDGE_LOOP('',(#36,#37,#38,#39));
#93=EDGE_LOOP('',(#40,#41,#42,#43));
#94=FACE_BOUND('',#88,.T.);
#95=FACE_BOUND('',#89,.T.);
#96=FACE_BOUND('',#90,.T.);
#97=FACE_BOUND('',#91,.T.);
#98=FACE_BOUND('',#92,.T.);
#99=FACE_BOUND('',#93,.T.);
#100=PLANE('',#125);
#101=PLANE('',#126);
#102=PLANE('',#127);
#103=PLANE('',#128);
#104=PLANE('',#129);
#105=PLANE('',#130);
#106=ADVANCED_FACE('',(#94),#100,.F.);
#107=ADVANCED_FACE('',(#95),#101,.F.);
#108=ADVANCED_FACE('',(#96),#102,.F.);
#109=ADVANCED_FACE('',(#97),#103,.F.);
#110=ADVANCED_FACE('',(#98),#104,.T.);
#111=ADVANCED_FACE('',(#99),#105,.F.);
#112=CLOSED_SHELL('',(#106,#107,#108,#109,#110,#111));
#113=STYLED_ITEM('',(#114),#121);
#114=PRESENTATION_STYLE_ASSIGNMENT((#115));
#115=SURFACE_STYLE_USAGE(.BOTH.,#116);
#116=SURFACE_SIDE_STYLE('',(#117));
#117=SURFACE_STYLE_FILL_AREA(#118);
#118=FILL_AREA_STYLE('',(#119));
#119=FILL_AREA_STYLE_COLOUR('',#120);
#120=COLOUR_RGB('',0.823529422283173,0.823529422283173,1.);
#121=MANIFOLD_SOLID_BREP('01626',#112);
#122=SHAPE_DEFINITION_REPRESENTATION(#190,#123);
#123=SHAPE_REPRESENTATION('01626',(#124),#185);
#124=AXIS2_PLACEMENT_3D('',#157,#131,#132);
#125=AXIS2_PLACEMENT_3D('',#158,#133,#134);
#126=AXIS2_PLACEMENT_3D('',#167,#139,#140);
#127=AXIS2_PLACEMENT_3D('',#173,#144,#145);
#128=AXIS2_PLACEMENT_3D('',#179,#149,#150);
#129=AXIS2_PLACEMENT_3D('',#182,#153,#154);
#130=AXIS2_PLACEMENT_3D('',#183,#155,#156);
#131=DIRECTION('',(0.,0.,1.));
#132=DIRECTION('',(1.,0.,0.));
#133=DIRECTION('',(0.,-6.12323399573677E-17,-1.));
#134=DIRECTION('',(0.,1.,-6.12323399573677E-17));
#135=DIRECTION('',(-1.,0.,0.));
#136=DIRECTION('',(0.,1.,-6.12323399573677E-17));
#137=DIRECTION('',(-1.,0.,0.));
#138=DIRECTION('',(0.,1.,-6.12323399573677E-17));
#139=DIRECTION('',(1.,0.,0.));
#140=DIRECTION('',(0.,0.,-1.));
#141=DIRECTION('',(0.,-6.12323399573677E-17,-1.));
#142=DIRECTION('',(0.,1.,-6.12323399573677E-17));
#143=DIRECTION('',(0.,-6.12323399573677E-17,-1.));
#144=DIRECTION('',(0.,6.12323399573677E-17,1.));
#145=DIRECTION('',(0.,-1.,6.12323399573677E-17));
#146=DIRECTION('',(1.,0.,0.));
#147=DIRECTION('',(0.,1.,-6.12323399573677E-17));
#148=DIRECTION('',(1.,0.,0.));
#149=DIRECTION('',(-1.,0.,0.));
#150=DIRECTION('',(0.,0.,1.));
#151=DIRECTION('',(0.,6.12323399573677E-17,1.));
#152=DIRECTION('',(0.,6.12323399573677E-17,1.));
#153=DIRECTION('',(0.,-1.,6.12323399573677E-17));
#154=DIRECTION('',(0.,-6.12323399573677E-17,-1.));
#155=DIRECTION('',(0.,-1.,6.12323399573677E-17));
#156=DIRECTION('',(0.,-6.12323399573677E-17,-1.));
#157=CARTESIAN_POINT('',(0.,0.,0.));
#158=CARTESIAN_POINT('',(2400.,-5.,20.));
#159=CARTESIAN_POINT('',(2400.,5.,20.));
#160=CARTESIAN_POINT('',(2400.,5.,20.));
#161=CARTESIAN_POINT('',(0.,5.,20.));
#162=CARTESIAN_POINT('',(0.,-5.,20.));
#163=CARTESIAN_POINT('',(0.,-5.,20.));
#164=CARTESIAN_POINT('',(2400.,-5.,20.));
#165=CARTESIAN_POINT('',(2400.,-5.,20.));
#166=CARTESIAN_POINT('',(2400.,-5.,20.));
#167=CARTESIAN_POINT('',(0.,-5.,20.));
#168=CARTESIAN_POINT('',(0.,5.,20.));
#169=CARTESIAN_POINT('',(0.,5.,-20.));
#170=CARTESIAN_POINT('',(0.,-5.,-20.));
#171=CARTESIAN_POINT('',(0.,-5.,-20.));
#172=CARTESIAN_POINT('',(0.,-5.,20.));
#173=CARTESIAN_POINT('',(0.,-5.,-20.));
#174=CARTESIAN_POINT('',(0.,5.,-20.));
#175=CARTESIAN_POINT('',(2400.,5.,-20.));
#176=CARTESIAN_POINT('',(2400.,-5.,-20.));
#177=CARTESIAN_POINT('',(2400.,-5.,-20.));
#178=CARTESIAN_POINT('',(0.,-5.,-20.));
#179=CARTESIAN_POINT('',(2400.,-5.,-20.));
#180=CARTESIAN_POINT('',(2400.,5.,-20.));
#181=CARTESIAN_POINT('',(2400.,-5.,-20.));
#182=CARTESIAN_POINT('',(0.,-5.,3.06161699786838E-16));
#183=CARTESIAN_POINT('',(0.,5.,-3.06161699786838E-16));
#184=MECHANICAL_DESIGN_GEOMETRIC_PRESENTATION_REPRESENTATION('',(#113),
#185);
#185=(
GEOMETRIC_REPRESENTATION_CONTEXT(3)
GLOBAL_UNCERTAINTY_ASSIGNED_CONTEXT((#186))
GLOBAL_UNIT_ASSIGNED_CONTEXT((#189,#188,#187))
REPRESENTATION_CONTEXT('01626','TOP_LEVEL_ASSEMBLY_PART')
);
#186=UNCERTAINTY_MEASURE_WITH_UNIT(LENGTH_MEASURE(0.005),#189,
'DISTANCE_ACCURACY_VALUE','Maximum Tolerance applied to model');
#187=(
NAMED_UNIT(*)
SI_UNIT($,.STERADIAN.)
SOLID_ANGLE_UNIT()
);
#188=(
NAMED_UNIT(*)
PLANE_ANGLE_UNIT()
SI_UNIT($,.RADIAN.)
);
#189=(
LENGTH_UNIT()
NAMED_UNIT(*)
SI_UNIT(.MILLI.,.METRE.)
);
#190=PRODUCT_DEFINITION_SHAPE('','',#191);
#191=PRODUCT_DEFINITION('','',#193,#192);
#192=PRODUCT_DEFINITION_CONTEXT('',#199,'design');
#193=PRODUCT_DEFINITION_FORMATION_WITH_SPECIFIED_SOURCE('','',#195,
 .NOT_KNOWN.);
#194=PRODUCT_RELATED_PRODUCT_CATEGORY('','',(#195));
#195=PRODUCT('01626','01626','01626',(#197));
#196=PRODUCT_CATEGORY('','');
#197=PRODUCT_CONTEXT('',#199,'mechanical');
#198=APPLICATION_PROTOCOL_DEFINITION('international standard',
'automotive_design',2010,#199);
#199=APPLICATION_CONTEXT(
'core data for automotive mechanical design processes');
ENDSEC;
END-ISO-10303-21;
