ISO-10303-21;
HEADER;
/* Generated by software containing ST-Developer
 * from STEP Tools, Inc. (www.steptools.com) 
 */

FILE_DESCRIPTION(
/* description */ (''),
/* implementation_level */ '2;1');

FILE_NAME(
/* name */ 'C:\\Users\\rmand\\Desktop\\david\\6x32_3d-model.stp',
/* time_stamp */ '2025-03-21T12:51:43+01:00',
/* author */ ('rmand'),
/* organization */ (''),
/* preprocessor_version */ 'ST-DEVELOPER v17',
/* originating_system */ 'Autodesk Inventor 2019',
/* authorisation */ '');

FILE_SCHEMA (('AUTOMOTIVE_DESIGN { 1 0 10303 214 3 1 1 }'));
ENDSEC;

DATA;
#10=MECHANICAL_DESIGN_GEOMETRIC_PRESENTATION_REPRESENTATION('',(#14,#15),
#327);
#11=SHAPE_REPRESENTATION_RELATIONSHIP('SRR','None',#334,#12);
#12=ADVANCED_BREP_SHAPE_REPRESENTATION('',(#13),#326);
#13=MANIFOLD_SOLID_BREP('Solido1',#165);
#14=STYLED_ITEM('',(#344),#162);
#15=STYLED_ITEM('',(#343),#13);
#16=FACE_BOUND('',#45,.T.);
#17=FACE_BOUND('',#49,.T.);
#18=PLANE('',#193);
#19=PLANE('',#202);
#20=PLANE('',#208);
#21=PLANE('',#213);
#22=LINE('',#290,#25);
#23=LINE('',#305,#26);
#24=LINE('',#318,#27);
#25=VECTOR('',#230,3.175);
#26=VECTOR('',#249,3.175);
#27=VECTOR('',#268,3.);
#28=CYLINDRICAL_SURFACE('',#191,3.175);
#29=CYLINDRICAL_SURFACE('',#199,3.175);
#30=CYLINDRICAL_SURFACE('',#209,3.);
#31=FACE_OUTER_BOUND('',#42,.T.);
#32=FACE_OUTER_BOUND('',#43,.T.);
#33=FACE_OUTER_BOUND('',#44,.T.);
#34=FACE_OUTER_BOUND('',#46,.T.);
#35=FACE_OUTER_BOUND('',#47,.T.);
#36=FACE_OUTER_BOUND('',#48,.T.);
#37=FACE_OUTER_BOUND('',#50,.T.);
#38=FACE_OUTER_BOUND('',#51,.T.);
#39=FACE_OUTER_BOUND('',#52,.T.);
#40=FACE_OUTER_BOUND('',#53,.T.);
#41=FACE_OUTER_BOUND('',#54,.T.);
#42=EDGE_LOOP('',(#108,#109,#110,#111,#112,#113));
#43=EDGE_LOOP('',(#114,#115,#116,#117,#118));
#44=EDGE_LOOP('',(#119,#120));
#45=EDGE_LOOP('',(#121));
#46=EDGE_LOOP('',(#122,#123,#124,#125));
#47=EDGE_LOOP('',(#126,#127,#128,#129,#130));
#48=EDGE_LOOP('',(#131));
#49=EDGE_LOOP('',(#132));
#50=EDGE_LOOP('',(#133,#134,#135,#136,#137,#138));
#51=EDGE_LOOP('',(#139,#140));
#52=EDGE_LOOP('',(#141,#142,#143,#144));
#53=EDGE_LOOP('',(#145,#146,#147,#148));
#54=EDGE_LOOP('',(#149));
#55=CIRCLE('',#186,3.075);
#56=CIRCLE('',#187,0.1);
#57=CIRCLE('',#188,3.175);
#58=CIRCLE('',#189,3.175);
#59=CIRCLE('',#190,3.075);
#60=CIRCLE('',#192,3.175);
#61=CIRCLE('',#194,3.);
#62=CIRCLE('',#196,3.075);
#63=CIRCLE('',#197,0.1);
#64=CIRCLE('',#198,3.175);
#65=CIRCLE('',#200,3.175);
#66=CIRCLE('',#201,3.175);
#67=CIRCLE('',#203,3.);
#68=CIRCLE('',#205,2.675);
#69=CIRCLE('',#206,0.5);
#70=CIRCLE('',#207,2.675);
#71=CIRCLE('',#211,2.675);
#72=CIRCLE('',#212,0.5);
#73=VERTEX_POINT('',#279);
#74=VERTEX_POINT('',#280);
#75=VERTEX_POINT('',#282);
#76=VERTEX_POINT('',#284);
#77=VERTEX_POINT('',#289);
#78=VERTEX_POINT('',#293);
#79=VERTEX_POINT('',#296);
#80=VERTEX_POINT('',#298);
#81=VERTEX_POINT('',#302);
#82=VERTEX_POINT('',#303);
#83=VERTEX_POINT('',#308);
#84=VERTEX_POINT('',#311);
#85=VERTEX_POINT('',#312);
#86=VERTEX_POINT('',#320);
#87=EDGE_CURVE('',#73,#74,#55,.T.);
#88=EDGE_CURVE('',#74,#75,#56,.T.);
#89=EDGE_CURVE('',#75,#76,#57,.T.);
#90=EDGE_CURVE('',#76,#75,#58,.T.);
#91=EDGE_CURVE('',#74,#73,#59,.T.);
#92=EDGE_CURVE('',#76,#77,#22,.T.);
#93=EDGE_CURVE('',#77,#77,#60,.T.);
#94=EDGE_CURVE('',#78,#78,#61,.T.);
#95=EDGE_CURVE('',#79,#79,#62,.T.);
#96=EDGE_CURVE('',#79,#80,#63,.T.);
#97=EDGE_CURVE('',#80,#80,#64,.T.);
#98=EDGE_CURVE('',#81,#82,#65,.T.);
#99=EDGE_CURVE('',#81,#80,#23,.T.);
#100=EDGE_CURVE('',#82,#81,#66,.T.);
#101=EDGE_CURVE('',#83,#83,#67,.T.);
#102=EDGE_CURVE('',#84,#85,#68,.T.);
#103=EDGE_CURVE('',#85,#82,#69,.T.);
#104=EDGE_CURVE('',#85,#84,#70,.T.);
#105=EDGE_CURVE('',#83,#78,#24,.T.);
#106=EDGE_CURVE('',#86,#86,#71,.T.);
#107=EDGE_CURVE('',#86,#77,#72,.T.);
#108=ORIENTED_EDGE('',*,*,#87,.T.);
#109=ORIENTED_EDGE('',*,*,#88,.T.);
#110=ORIENTED_EDGE('',*,*,#89,.T.);
#111=ORIENTED_EDGE('',*,*,#90,.T.);
#112=ORIENTED_EDGE('',*,*,#88,.F.);
#113=ORIENTED_EDGE('',*,*,#91,.T.);
#114=ORIENTED_EDGE('',*,*,#90,.F.);
#115=ORIENTED_EDGE('',*,*,#92,.T.);
#116=ORIENTED_EDGE('',*,*,#93,.F.);
#117=ORIENTED_EDGE('',*,*,#92,.F.);
#118=ORIENTED_EDGE('',*,*,#89,.F.);
#119=ORIENTED_EDGE('',*,*,#87,.F.);
#120=ORIENTED_EDGE('',*,*,#91,.F.);
#121=ORIENTED_EDGE('',*,*,#94,.T.);
#122=ORIENTED_EDGE('',*,*,#95,.T.);
#123=ORIENTED_EDGE('',*,*,#96,.T.);
#124=ORIENTED_EDGE('',*,*,#97,.T.);
#125=ORIENTED_EDGE('',*,*,#96,.F.);
#126=ORIENTED_EDGE('',*,*,#98,.F.);
#127=ORIENTED_EDGE('',*,*,#99,.T.);
#128=ORIENTED_EDGE('',*,*,#97,.F.);
#129=ORIENTED_EDGE('',*,*,#99,.F.);
#130=ORIENTED_EDGE('',*,*,#100,.F.);
#131=ORIENTED_EDGE('',*,*,#95,.F.);
#132=ORIENTED_EDGE('',*,*,#101,.T.);
#133=ORIENTED_EDGE('',*,*,#102,.T.);
#134=ORIENTED_EDGE('',*,*,#103,.T.);
#135=ORIENTED_EDGE('',*,*,#100,.T.);
#136=ORIENTED_EDGE('',*,*,#98,.T.);
#137=ORIENTED_EDGE('',*,*,#103,.F.);
#138=ORIENTED_EDGE('',*,*,#104,.T.);
#139=ORIENTED_EDGE('',*,*,#102,.F.);
#140=ORIENTED_EDGE('',*,*,#104,.F.);
#141=ORIENTED_EDGE('',*,*,#101,.F.);
#142=ORIENTED_EDGE('',*,*,#105,.T.);
#143=ORIENTED_EDGE('',*,*,#94,.F.);
#144=ORIENTED_EDGE('',*,*,#105,.F.);
#145=ORIENTED_EDGE('',*,*,#106,.T.);
#146=ORIENTED_EDGE('',*,*,#107,.T.);
#147=ORIENTED_EDGE('',*,*,#93,.T.);
#148=ORIENTED_EDGE('',*,*,#107,.F.);
#149=ORIENTED_EDGE('',*,*,#106,.F.);
#150=TOROIDAL_SURFACE('',#185,3.075,0.1);
#151=TOROIDAL_SURFACE('',#195,3.075,0.1);
#152=TOROIDAL_SURFACE('',#204,2.675,0.5);
#153=TOROIDAL_SURFACE('',#210,2.675,0.5);
#154=ADVANCED_FACE('',(#31),#150,.T.);
#155=ADVANCED_FACE('',(#32),#28,.T.);
#156=ADVANCED_FACE('',(#33,#16),#18,.T.);
#157=ADVANCED_FACE('',(#34),#151,.T.);
#158=ADVANCED_FACE('',(#35),#29,.T.);
#159=ADVANCED_FACE('',(#36,#17),#19,.F.);
#160=ADVANCED_FACE('',(#37),#152,.T.);
#161=ADVANCED_FACE('',(#38),#20,.T.);
#162=ADVANCED_FACE('',(#39),#30,.T.);
#163=ADVANCED_FACE('',(#40),#153,.T.);
#164=ADVANCED_FACE('',(#41),#21,.F.);
#165=CLOSED_SHELL('',(#154,#155,#156,#157,#158,#159,#160,#161,#162,#163,
#164));
#166=DERIVED_UNIT_ELEMENT(#168,1.);
#167=DERIVED_UNIT_ELEMENT(#329,3.);
#168=(
MASS_UNIT()
NAMED_UNIT(*)
SI_UNIT($,.GRAM.)
);
#169=DERIVED_UNIT((#166,#167));
#170=MEASURE_REPRESENTATION_ITEM('density measure',
POSITIVE_RATIO_MEASURE(1.),#169);
#171=PROPERTY_DEFINITION_REPRESENTATION(#176,#173);
#172=PROPERTY_DEFINITION_REPRESENTATION(#177,#174);
#173=REPRESENTATION('material name',(#175),#326);
#174=REPRESENTATION('density',(#170),#326);
#175=DESCRIPTIVE_REPRESENTATION_ITEM('Generico','Generico');
#176=PROPERTY_DEFINITION('material property','material name',#336);
#177=PROPERTY_DEFINITION('material property','density of part',#336);
#178=DATE_TIME_ROLE('creation_date');
#179=APPLIED_DATE_AND_TIME_ASSIGNMENT(#180,#178,(#336));
#180=DATE_AND_TIME(#181,#182);
#181=CALENDAR_DATE(2025,21,3);
#182=LOCAL_TIME(12,49,33.,#183);
#183=COORDINATED_UNIVERSAL_TIME_OFFSET(0,0,.BEHIND.);
#184=AXIS2_PLACEMENT_3D('placement',#277,#214,#215);
#185=AXIS2_PLACEMENT_3D('',#278,#216,#217);
#186=AXIS2_PLACEMENT_3D('',#281,#218,#219);
#187=AXIS2_PLACEMENT_3D('',#283,#220,#221);
#188=AXIS2_PLACEMENT_3D('',#285,#222,#223);
#189=AXIS2_PLACEMENT_3D('',#286,#224,#225);
#190=AXIS2_PLACEMENT_3D('',#287,#226,#227);
#191=AXIS2_PLACEMENT_3D('',#288,#228,#229);
#192=AXIS2_PLACEMENT_3D('',#291,#231,#232);
#193=AXIS2_PLACEMENT_3D('',#292,#233,#234);
#194=AXIS2_PLACEMENT_3D('',#294,#235,#236);
#195=AXIS2_PLACEMENT_3D('',#295,#237,#238);
#196=AXIS2_PLACEMENT_3D('',#297,#239,#240);
#197=AXIS2_PLACEMENT_3D('',#299,#241,#242);
#198=AXIS2_PLACEMENT_3D('',#300,#243,#244);
#199=AXIS2_PLACEMENT_3D('',#301,#245,#246);
#200=AXIS2_PLACEMENT_3D('',#304,#247,#248);
#201=AXIS2_PLACEMENT_3D('',#306,#250,#251);
#202=AXIS2_PLACEMENT_3D('',#307,#252,#253);
#203=AXIS2_PLACEMENT_3D('',#309,#254,#255);
#204=AXIS2_PLACEMENT_3D('',#310,#256,#257);
#205=AXIS2_PLACEMENT_3D('',#313,#258,#259);
#206=AXIS2_PLACEMENT_3D('',#314,#260,#261);
#207=AXIS2_PLACEMENT_3D('',#315,#262,#263);
#208=AXIS2_PLACEMENT_3D('',#316,#264,#265);
#209=AXIS2_PLACEMENT_3D('',#317,#266,#267);
#210=AXIS2_PLACEMENT_3D('',#319,#269,#270);
#211=AXIS2_PLACEMENT_3D('',#321,#271,#272);
#212=AXIS2_PLACEMENT_3D('',#322,#273,#274);
#213=AXIS2_PLACEMENT_3D('',#323,#275,#276);
#214=DIRECTION('axis',(0.,0.,1.));
#215=DIRECTION('refdir',(1.,0.,0.));
#216=DIRECTION('center_axis',(0.,0.,1.));
#217=DIRECTION('ref_axis',(1.,0.,0.));
#218=DIRECTION('center_axis',(0.,0.,-1.));
#219=DIRECTION('ref_axis',(-1.,0.,0.));
#220=DIRECTION('center_axis',(1.22464679914735E-16,-1.,0.));
#221=DIRECTION('ref_axis',(-1.,-1.22464679914735E-16,0.));
#222=DIRECTION('center_axis',(0.,0.,1.));
#223=DIRECTION('ref_axis',(-1.,0.,0.));
#224=DIRECTION('center_axis',(0.,0.,1.));
#225=DIRECTION('ref_axis',(-1.,0.,0.));
#226=DIRECTION('center_axis',(0.,0.,-1.));
#227=DIRECTION('ref_axis',(-1.,0.,0.));
#228=DIRECTION('center_axis',(0.,0.,1.));
#229=DIRECTION('ref_axis',(-1.,0.,0.));
#230=DIRECTION('',(0.,0.,-1.));
#231=DIRECTION('center_axis',(0.,0.,-1.));
#232=DIRECTION('ref_axis',(-1.,0.,0.));
#233=DIRECTION('center_axis',(0.,0.,1.));
#234=DIRECTION('ref_axis',(1.,0.,0.));
#235=DIRECTION('center_axis',(0.,0.,-1.));
#236=DIRECTION('ref_axis',(-1.,0.,0.));
#237=DIRECTION('center_axis',(0.,0.,-1.));
#238=DIRECTION('ref_axis',(-1.,0.,0.));
#239=DIRECTION('center_axis',(0.,0.,1.));
#240=DIRECTION('ref_axis',(-1.,0.,0.));
#241=DIRECTION('center_axis',(-1.22464679914735E-16,-1.,0.));
#242=DIRECTION('ref_axis',(1.,-1.22464679914735E-16,0.));
#243=DIRECTION('center_axis',(0.,0.,-1.));
#244=DIRECTION('ref_axis',(-1.,0.,0.));
#245=DIRECTION('center_axis',(0.,0.,1.));
#246=DIRECTION('ref_axis',(-1.,0.,0.));
#247=DIRECTION('center_axis',(0.,0.,1.));
#248=DIRECTION('ref_axis',(-1.,0.,0.));
#249=DIRECTION('',(0.,0.,-1.));
#250=DIRECTION('center_axis',(0.,0.,1.));
#251=DIRECTION('ref_axis',(-1.,0.,0.));
#252=DIRECTION('center_axis',(0.,0.,1.));
#253=DIRECTION('ref_axis',(1.,0.,0.));
#254=DIRECTION('center_axis',(0.,0.,1.));
#255=DIRECTION('ref_axis',(-1.,0.,0.));
#256=DIRECTION('center_axis',(0.,0.,1.));
#257=DIRECTION('ref_axis',(1.,0.,0.));
#258=DIRECTION('center_axis',(0.,0.,-1.));
#259=DIRECTION('ref_axis',(-1.,0.,0.));
#260=DIRECTION('center_axis',(1.22464679914735E-16,-1.,0.));
#261=DIRECTION('ref_axis',(-1.,-1.22464679914735E-16,0.));
#262=DIRECTION('center_axis',(0.,0.,-1.));
#263=DIRECTION('ref_axis',(-1.,0.,0.));
#264=DIRECTION('center_axis',(0.,0.,1.));
#265=DIRECTION('ref_axis',(1.,0.,0.));
#266=DIRECTION('center_axis',(0.,0.,1.));
#267=DIRECTION('ref_axis',(-1.,0.,0.));
#268=DIRECTION('',(0.,0.,-1.));
#269=DIRECTION('center_axis',(0.,0.,-1.));
#270=DIRECTION('ref_axis',(-1.,0.,0.));
#271=DIRECTION('center_axis',(0.,0.,1.));
#272=DIRECTION('ref_axis',(-1.,0.,0.));
#273=DIRECTION('center_axis',(-1.22464679914735E-16,-1.,0.));
#274=DIRECTION('ref_axis',(1.,-1.22464679914735E-16,0.));
#275=DIRECTION('center_axis',(0.,0.,1.));
#276=DIRECTION('ref_axis',(1.,0.,0.));
#277=CARTESIAN_POINT('',(0.,0.,0.));
#278=CARTESIAN_POINT('Origin',(0.,0.,5.8));
#279=CARTESIAN_POINT('',(3.075,-3.76578890737811E-16,5.9));
#280=CARTESIAN_POINT('',(-3.075,-3.76578890737811E-16,5.9));
#281=CARTESIAN_POINT('Origin',(0.,0.,5.9));
#282=CARTESIAN_POINT('',(-3.175,-3.88825358729285E-16,5.8));
#283=CARTESIAN_POINT('Origin',(-3.075,-3.76578890737811E-16,5.8));
#284=CARTESIAN_POINT('',(3.175,3.88825358729285E-16,5.8));
#285=CARTESIAN_POINT('Origin',(0.,0.,5.8));
#286=CARTESIAN_POINT('Origin',(0.,0.,5.8));
#287=CARTESIAN_POINT('Origin',(0.,0.,5.9));
#288=CARTESIAN_POINT('Origin',(0.,0.,0.));
#289=CARTESIAN_POINT('',(3.175,-3.88825358729285E-16,0.5));
#290=CARTESIAN_POINT('',(3.175,3.88825358729285E-16,0.));
#291=CARTESIAN_POINT('Origin',(0.,0.,0.5));
#292=CARTESIAN_POINT('Origin',(-3.23799232551628E-16,7.2849279831047E-17,
5.9));
#293=CARTESIAN_POINT('',(3.,3.67394039744206E-16,5.9));
#294=CARTESIAN_POINT('Origin',(0.,0.,5.9));
#295=CARTESIAN_POINT('Origin',(0.,0.,26.));
#296=CARTESIAN_POINT('',(3.075,3.76578890737811E-16,25.9));
#297=CARTESIAN_POINT('Origin',(0.,0.,25.9));
#298=CARTESIAN_POINT('',(3.175,-3.88825358729285E-16,26.));
#299=CARTESIAN_POINT('Origin',(3.075,-3.76578890737811E-16,26.));
#300=CARTESIAN_POINT('Origin',(0.,0.,26.));
#301=CARTESIAN_POINT('Origin',(0.,0.,25.9));
#302=CARTESIAN_POINT('',(3.175,3.88825358729285E-16,31.3));
#303=CARTESIAN_POINT('',(-3.175,-3.88825358729285E-16,31.3));
#304=CARTESIAN_POINT('Origin',(0.,0.,31.3));
#305=CARTESIAN_POINT('',(3.175,3.88825358729285E-16,25.9));
#306=CARTESIAN_POINT('Origin',(0.,0.,31.3));
#307=CARTESIAN_POINT('Origin',(-1.78100672889534E-16,0.,25.9));
#308=CARTESIAN_POINT('',(3.,3.67394039744206E-16,25.9));
#309=CARTESIAN_POINT('Origin',(0.,0.,25.9));
#310=CARTESIAN_POINT('Origin',(0.,0.,31.3));
#311=CARTESIAN_POINT('',(2.675,-3.27593018771917E-16,31.8));
#312=CARTESIAN_POINT('',(-2.675,-3.27593018771917E-16,31.8));
#313=CARTESIAN_POINT('Origin',(0.,0.,31.8));
#314=CARTESIAN_POINT('Origin',(-2.675,-3.27593018771917E-16,31.3));
#315=CARTESIAN_POINT('Origin',(0.,0.,31.8));
#316=CARTESIAN_POINT('Origin',(-1.78100672889534E-16,0.,31.8));
#317=CARTESIAN_POINT('Origin',(0.,0.,5.9));
#318=CARTESIAN_POINT('',(3.,3.67394039744206E-16,5.9));
#319=CARTESIAN_POINT('Origin',(0.,0.,0.5));
#320=CARTESIAN_POINT('',(2.675,3.27593018771917E-16,0.));
#321=CARTESIAN_POINT('Origin',(0.,0.,0.));
#322=CARTESIAN_POINT('Origin',(2.675,-3.27593018771917E-16,0.5));
#323=CARTESIAN_POINT('Origin',(-3.23799232551628E-16,7.2849279831047E-17,
0.));
#324=UNCERTAINTY_MEASURE_WITH_UNIT(LENGTH_MEASURE(0.01),#328,
'DISTANCE_ACCURACY_VALUE',
'Maximum model space distance between geometric entities at asserted c
onnectivities');
#325=UNCERTAINTY_MEASURE_WITH_UNIT(LENGTH_MEASURE(0.01),#328,
'DISTANCE_ACCURACY_VALUE',
'Maximum model space distance between geometric entities at asserted c
onnectivities');
#326=(
GEOMETRIC_REPRESENTATION_CONTEXT(3)
GLOBAL_UNCERTAINTY_ASSIGNED_CONTEXT((#324))
GLOBAL_UNIT_ASSIGNED_CONTEXT((#328,#331,#330))
REPRESENTATION_CONTEXT('','3D')
);
#327=(
GEOMETRIC_REPRESENTATION_CONTEXT(3)
GLOBAL_UNCERTAINTY_ASSIGNED_CONTEXT((#325))
GLOBAL_UNIT_ASSIGNED_CONTEXT((#328,#331,#330))
REPRESENTATION_CONTEXT('','3D')
);
#328=(
LENGTH_UNIT()
NAMED_UNIT(*)
SI_UNIT(.MILLI.,.METRE.)
);
#329=(
LENGTH_UNIT()
NAMED_UNIT(*)
SI_UNIT(.CENTI.,.METRE.)
);
#330=(
NAMED_UNIT(*)
SI_UNIT($,.STERADIAN.)
SOLID_ANGLE_UNIT()
);
#331=(
NAMED_UNIT(*)
PLANE_ANGLE_UNIT()
SI_UNIT($,.RADIAN.)
);
#332=SHAPE_DEFINITION_REPRESENTATION(#333,#334);
#333=PRODUCT_DEFINITION_SHAPE('',$,#336);
#334=SHAPE_REPRESENTATION('',(#184),#326);
#335=PRODUCT_DEFINITION_CONTEXT('part definition',#340,'design');
#336=PRODUCT_DEFINITION('6x30','6x30',#337,#335);
#337=PRODUCT_DEFINITION_FORMATION('',$,#342);
#338=PRODUCT_RELATED_PRODUCT_CATEGORY('6x30','6x30',(#342));
#339=APPLICATION_PROTOCOL_DEFINITION('international standard',
'automotive_design',2009,#340);
#340=APPLICATION_CONTEXT(
'Core Data for Automotive Mechanical Design Process');
#341=PRODUCT_CONTEXT('part definition',#340,'mechanical');
#342=PRODUCT('6x30','6x30',$,(#341));
#343=PRESENTATION_STYLE_ASSIGNMENT((#345));
#344=PRESENTATION_STYLE_ASSIGNMENT((#346));
#345=SURFACE_STYLE_USAGE(.BOTH.,#347);
#346=SURFACE_STYLE_USAGE(.BOTH.,#348);
#347=SURFACE_SIDE_STYLE('',(#349));
#348=SURFACE_SIDE_STYLE('',(#350));
#349=SURFACE_STYLE_FILL_AREA(#351);
#350=SURFACE_STYLE_FILL_AREA(#352);
#351=FILL_AREA_STYLE('',(#353));
#352=FILL_AREA_STYLE('',(#354));
#353=FILL_AREA_STYLE_COLOUR('',#355);
#354=FILL_AREA_STYLE_COLOUR('',#356);
#355=COLOUR_RGB('',0.270588235294118,0.270588235294118,0.270588235294118);
#356=COLOUR_RGB('',0.6,0.6,0.6);
ENDSEC;
END-ISO-10303-21;
