ISO-10303-21;
HEADER;
/* Generated by software containing ST-Developer
 * from STEP Tools, Inc. (www.steptools.com) 
 */

FILE_DESCRIPTION(
/* description */ (''),
/* implementation_level */ '2;1');

FILE_NAME(
/* name */ 'C:\\Temp\\CCMR-0.200-30A.stp',
/* time_stamp */ '2022-07-01T10:14:56-05:00',
/* author */ ('myork'),
/* organization */ (''),
/* preprocessor_version */ 'ST-DEVELOPER v18.1',
/* originating_system */ 'Autodesk Inventor 2021',
/* authorisation */ '');

FILE_SCHEMA (('AUTOMOTIVE_DESIGN { 1 0 10303 214 3 1 1 }'));
ENDSEC;

DATA;
#10=MECHANICAL_DESIGN_GEOMETRIC_PRESENTATION_REPRESENTATION('',(#285,#286,
#287,#288,#289,#290,#291,#292,#293,#294,#295,#296,#297,#298,#299,#300,#301,
#302),#610);
#11=SHAPE_REPRESENTATION_RELATIONSHIP('SRR','None',#620,#12);
#12=ADVANCED_BREP_SHAPE_REPRESENTATION('',(#13),#609);
#13=MANIFOLD_SOLID_BREP('Solid1',#320);
#14=FACE_BOUND('',#66,.T.);
#15=FACE_BOUND('',#73,.T.);
#16=FACE_BOUND('',#76,.T.);
#17=PLANE('',#352);
#18=PLANE('',#368);
#19=PLANE('',#382);
#20=PLANE('',#388);
#21=PLANE('',#394);
#22=LINE('',#526,#28);
#23=LINE('',#537,#29);
#24=LINE('',#553,#30);
#25=LINE('',#580,#31);
#26=LINE('',#591,#32);
#27=LINE('',#605,#33);
#28=VECTOR('',#411,0.203);
#29=VECTOR('',#426,0.18);
#30=VECTOR('',#445,0.203);
#31=VECTOR('',#478,0.125);
#32=VECTOR('',#493,0.18);
#33=VECTOR('',#510,0.2025);
#34=CYLINDRICAL_SURFACE('',#344,0.203);
#35=CYLINDRICAL_SURFACE('',#353,0.18);
#36=CYLINDRICAL_SURFACE('',#360,0.203);
#37=CYLINDRICAL_SURFACE('',#378,0.125);
#38=CYLINDRICAL_SURFACE('',#385,0.18);
#39=CYLINDRICAL_SURFACE('',#391,0.2025);
#40=FACE_OUTER_BOUND('',#57,.T.);
#41=FACE_OUTER_BOUND('',#58,.T.);
#42=FACE_OUTER_BOUND('',#59,.T.);
#43=FACE_OUTER_BOUND('',#60,.T.);
#44=FACE_OUTER_BOUND('',#61,.T.);
#45=FACE_OUTER_BOUND('',#62,.T.);
#46=FACE_OUTER_BOUND('',#63,.T.);
#47=FACE_OUTER_BOUND('',#64,.T.);
#48=FACE_OUTER_BOUND('',#65,.T.);
#49=FACE_OUTER_BOUND('',#67,.T.);
#50=FACE_OUTER_BOUND('',#68,.T.);
#51=FACE_OUTER_BOUND('',#69,.T.);
#52=FACE_OUTER_BOUND('',#70,.T.);
#53=FACE_OUTER_BOUND('',#71,.T.);
#54=FACE_OUTER_BOUND('',#72,.T.);
#55=FACE_OUTER_BOUND('',#74,.T.);
#56=FACE_OUTER_BOUND('',#75,.T.);
#57=EDGE_LOOP('',(#191,#192,#193,#194));
#58=EDGE_LOOP('',(#195,#196,#197,#198,#199,#200));
#59=EDGE_LOOP('',(#201,#202,#203,#204,#205,#206,#207));
#60=EDGE_LOOP('',(#208,#209));
#61=EDGE_LOOP('',(#210,#211,#212,#213,#214));
#62=EDGE_LOOP('',(#215,#216,#217,#218));
#63=EDGE_LOOP('',(#219,#220,#221,#222,#223,#224));
#64=EDGE_LOOP('',(#225,#226,#227,#228,#229,#230,#231));
#65=EDGE_LOOP('',(#232,#233));
#66=EDGE_LOOP('',(#234,#235));
#67=EDGE_LOOP('',(#236,#237,#238,#239,#240,#241,#242));
#68=EDGE_LOOP('',(#243,#244,#245,#246,#247,#248,#249,#250));
#69=EDGE_LOOP('',(#251,#252));
#70=EDGE_LOOP('',(#253,#254,#255,#256,#257,#258,#259));
#71=EDGE_LOOP('',(#260,#261,#262,#263,#264));
#72=EDGE_LOOP('',(#265,#266));
#73=EDGE_LOOP('',(#267,#268));
#74=EDGE_LOOP('',(#269,#270,#271,#272,#273,#274));
#75=EDGE_LOOP('',(#275,#276));
#76=EDGE_LOOP('',(#277,#278));
#77=CIRCLE('',#341,0.203);
#78=CIRCLE('',#342,0.025);
#79=CIRCLE('',#343,0.18);
#80=CIRCLE('',#345,0.203);
#81=CIRCLE('',#346,0.203);
#82=CIRCLE('',#347,0.203);
#83=CIRCLE('',#349,0.178);
#84=CIRCLE('',#350,0.178);
#85=CIRCLE('',#351,0.025);
#86=CIRCLE('',#354,0.18);
#87=CIRCLE('',#355,0.18);
#88=CIRCLE('',#357,0.203);
#89=CIRCLE('',#358,0.025);
#90=CIRCLE('',#359,0.18);
#91=CIRCLE('',#361,0.203);
#92=CIRCLE('',#362,0.203);
#93=CIRCLE('',#363,0.203);
#94=CIRCLE('',#365,0.178);
#95=CIRCLE('',#366,0.025);
#96=CIRCLE('',#367,0.178);
#97=CIRCLE('',#369,0.1425);
#98=CIRCLE('',#370,0.1425);
#99=CIRCLE('',#372,0.1075);
#100=CIRCLE('',#373,0.0175);
#101=CIRCLE('',#374,0.125);
#102=CIRCLE('',#375,0.125);
#103=CIRCLE('',#376,0.125);
#104=CIRCLE('',#377,0.1075);
#105=CIRCLE('',#379,0.125);
#106=CIRCLE('',#380,0.125);
#107=CIRCLE('',#381,0.125);
#108=CIRCLE('',#384,0.0175);
#109=CIRCLE('',#386,0.18);
#110=CIRCLE('',#387,0.18);
#111=CIRCLE('',#389,0.2025);
#112=CIRCLE('',#390,0.2025);
#113=CIRCLE('',#392,0.2025);
#114=CIRCLE('',#393,0.2025);
#115=VERTEX_POINT('',#515);
#116=VERTEX_POINT('',#517);
#117=VERTEX_POINT('',#521);
#118=VERTEX_POINT('',#522);
#119=VERTEX_POINT('',#524);
#120=VERTEX_POINT('',#529);
#121=VERTEX_POINT('',#530);
#122=VERTEX_POINT('',#536);
#123=VERTEX_POINT('',#538);
#124=VERTEX_POINT('',#542);
#125=VERTEX_POINT('',#544);
#126=VERTEX_POINT('',#548);
#127=VERTEX_POINT('',#549);
#128=VERTEX_POINT('',#551);
#129=VERTEX_POINT('',#556);
#130=VERTEX_POINT('',#557);
#131=VERTEX_POINT('',#562);
#132=VERTEX_POINT('',#563);
#133=VERTEX_POINT('',#567);
#134=VERTEX_POINT('',#568);
#135=VERTEX_POINT('',#570);
#136=VERTEX_POINT('',#572);
#137=VERTEX_POINT('',#574);
#138=VERTEX_POINT('',#579);
#139=VERTEX_POINT('',#581);
#140=VERTEX_POINT('',#583);
#141=VERTEX_POINT('',#590);
#142=VERTEX_POINT('',#592);
#143=VERTEX_POINT('',#596);
#144=VERTEX_POINT('',#597);
#145=VERTEX_POINT('',#601);
#146=VERTEX_POINT('',#602);
#147=EDGE_CURVE('',#115,#115,#77,.T.);
#148=EDGE_CURVE('',#115,#116,#78,.T.);
#149=EDGE_CURVE('',#116,#116,#79,.T.);
#150=EDGE_CURVE('',#117,#118,#80,.T.);
#151=EDGE_CURVE('',#118,#119,#81,.T.);
#152=EDGE_CURVE('',#119,#115,#22,.T.);
#153=EDGE_CURVE('',#119,#117,#82,.T.);
#154=EDGE_CURVE('',#120,#121,#83,.T.);
#155=EDGE_CURVE('',#121,#120,#84,.T.);
#156=EDGE_CURVE('',#121,#118,#85,.T.);
#157=EDGE_CURVE('',#116,#122,#23,.T.);
#158=EDGE_CURVE('',#123,#122,#86,.T.);
#159=EDGE_CURVE('',#122,#123,#87,.T.);
#160=EDGE_CURVE('',#124,#124,#88,.T.);
#161=EDGE_CURVE('',#124,#125,#89,.T.);
#162=EDGE_CURVE('',#125,#125,#90,.T.);
#163=EDGE_CURVE('',#126,#127,#91,.T.);
#164=EDGE_CURVE('',#128,#126,#92,.T.);
#165=EDGE_CURVE('',#128,#124,#24,.T.);
#166=EDGE_CURVE('',#127,#128,#93,.T.);
#167=EDGE_CURVE('',#129,#130,#94,.T.);
#168=EDGE_CURVE('',#130,#127,#95,.T.);
#169=EDGE_CURVE('',#130,#129,#96,.T.);
#170=EDGE_CURVE('',#131,#132,#97,.T.);
#171=EDGE_CURVE('',#132,#131,#98,.T.);
#172=EDGE_CURVE('',#133,#134,#99,.T.);
#173=EDGE_CURVE('',#134,#135,#100,.T.);
#174=EDGE_CURVE('',#135,#136,#101,.T.);
#175=EDGE_CURVE('',#136,#137,#102,.T.);
#176=EDGE_CURVE('',#137,#135,#103,.T.);
#177=EDGE_CURVE('',#134,#133,#104,.T.);
#178=EDGE_CURVE('',#136,#138,#25,.T.);
#179=EDGE_CURVE('',#139,#138,#105,.T.);
#180=EDGE_CURVE('',#140,#139,#106,.T.);
#181=EDGE_CURVE('',#138,#140,#107,.T.);
#182=EDGE_CURVE('',#139,#132,#108,.T.);
#183=EDGE_CURVE('',#125,#141,#26,.T.);
#184=EDGE_CURVE('',#142,#141,#109,.T.);
#185=EDGE_CURVE('',#141,#142,#110,.T.);
#186=EDGE_CURVE('',#143,#144,#111,.T.);
#187=EDGE_CURVE('',#144,#143,#112,.T.);
#188=EDGE_CURVE('',#145,#146,#113,.T.);
#189=EDGE_CURVE('',#146,#145,#114,.T.);
#190=EDGE_CURVE('',#146,#144,#27,.T.);
#191=ORIENTED_EDGE('',*,*,#147,.F.);
#192=ORIENTED_EDGE('',*,*,#148,.T.);
#193=ORIENTED_EDGE('',*,*,#149,.F.);
#194=ORIENTED_EDGE('',*,*,#148,.F.);
#195=ORIENTED_EDGE('',*,*,#150,.T.);
#196=ORIENTED_EDGE('',*,*,#151,.T.);
#197=ORIENTED_EDGE('',*,*,#152,.T.);
#198=ORIENTED_EDGE('',*,*,#147,.T.);
#199=ORIENTED_EDGE('',*,*,#152,.F.);
#200=ORIENTED_EDGE('',*,*,#153,.T.);
#201=ORIENTED_EDGE('',*,*,#154,.F.);
#202=ORIENTED_EDGE('',*,*,#155,.F.);
#203=ORIENTED_EDGE('',*,*,#156,.T.);
#204=ORIENTED_EDGE('',*,*,#150,.F.);
#205=ORIENTED_EDGE('',*,*,#153,.F.);
#206=ORIENTED_EDGE('',*,*,#151,.F.);
#207=ORIENTED_EDGE('',*,*,#156,.F.);
#208=ORIENTED_EDGE('',*,*,#154,.T.);
#209=ORIENTED_EDGE('',*,*,#155,.T.);
#210=ORIENTED_EDGE('',*,*,#149,.T.);
#211=ORIENTED_EDGE('',*,*,#157,.T.);
#212=ORIENTED_EDGE('',*,*,#158,.F.);
#213=ORIENTED_EDGE('',*,*,#159,.F.);
#214=ORIENTED_EDGE('',*,*,#157,.F.);
#215=ORIENTED_EDGE('',*,*,#160,.T.);
#216=ORIENTED_EDGE('',*,*,#161,.T.);
#217=ORIENTED_EDGE('',*,*,#162,.T.);
#218=ORIENTED_EDGE('',*,*,#161,.F.);
#219=ORIENTED_EDGE('',*,*,#163,.F.);
#220=ORIENTED_EDGE('',*,*,#164,.F.);
#221=ORIENTED_EDGE('',*,*,#165,.T.);
#222=ORIENTED_EDGE('',*,*,#160,.F.);
#223=ORIENTED_EDGE('',*,*,#165,.F.);
#224=ORIENTED_EDGE('',*,*,#166,.F.);
#225=ORIENTED_EDGE('',*,*,#167,.T.);
#226=ORIENTED_EDGE('',*,*,#168,.T.);
#227=ORIENTED_EDGE('',*,*,#166,.T.);
#228=ORIENTED_EDGE('',*,*,#164,.T.);
#229=ORIENTED_EDGE('',*,*,#163,.T.);
#230=ORIENTED_EDGE('',*,*,#168,.F.);
#231=ORIENTED_EDGE('',*,*,#169,.T.);
#232=ORIENTED_EDGE('',*,*,#167,.F.);
#233=ORIENTED_EDGE('',*,*,#169,.F.);
#234=ORIENTED_EDGE('',*,*,#170,.F.);
#235=ORIENTED_EDGE('',*,*,#171,.F.);
#236=ORIENTED_EDGE('',*,*,#172,.T.);
#237=ORIENTED_EDGE('',*,*,#173,.T.);
#238=ORIENTED_EDGE('',*,*,#174,.T.);
#239=ORIENTED_EDGE('',*,*,#175,.T.);
#240=ORIENTED_EDGE('',*,*,#176,.T.);
#241=ORIENTED_EDGE('',*,*,#173,.F.);
#242=ORIENTED_EDGE('',*,*,#177,.T.);
#243=ORIENTED_EDGE('',*,*,#176,.F.);
#244=ORIENTED_EDGE('',*,*,#175,.F.);
#245=ORIENTED_EDGE('',*,*,#178,.T.);
#246=ORIENTED_EDGE('',*,*,#179,.F.);
#247=ORIENTED_EDGE('',*,*,#180,.F.);
#248=ORIENTED_EDGE('',*,*,#181,.F.);
#249=ORIENTED_EDGE('',*,*,#178,.F.);
#250=ORIENTED_EDGE('',*,*,#174,.F.);
#251=ORIENTED_EDGE('',*,*,#172,.F.);
#252=ORIENTED_EDGE('',*,*,#177,.F.);
#253=ORIENTED_EDGE('',*,*,#180,.T.);
#254=ORIENTED_EDGE('',*,*,#182,.T.);
#255=ORIENTED_EDGE('',*,*,#171,.T.);
#256=ORIENTED_EDGE('',*,*,#170,.T.);
#257=ORIENTED_EDGE('',*,*,#182,.F.);
#258=ORIENTED_EDGE('',*,*,#179,.T.);
#259=ORIENTED_EDGE('',*,*,#181,.T.);
#260=ORIENTED_EDGE('',*,*,#162,.F.);
#261=ORIENTED_EDGE('',*,*,#183,.T.);
#262=ORIENTED_EDGE('',*,*,#184,.F.);
#263=ORIENTED_EDGE('',*,*,#185,.F.);
#264=ORIENTED_EDGE('',*,*,#183,.F.);
#265=ORIENTED_EDGE('',*,*,#186,.T.);
#266=ORIENTED_EDGE('',*,*,#187,.T.);
#267=ORIENTED_EDGE('',*,*,#158,.T.);
#268=ORIENTED_EDGE('',*,*,#159,.T.);
#269=ORIENTED_EDGE('',*,*,#188,.F.);
#270=ORIENTED_EDGE('',*,*,#189,.F.);
#271=ORIENTED_EDGE('',*,*,#190,.T.);
#272=ORIENTED_EDGE('',*,*,#186,.F.);
#273=ORIENTED_EDGE('',*,*,#187,.F.);
#274=ORIENTED_EDGE('',*,*,#190,.F.);
#275=ORIENTED_EDGE('',*,*,#188,.T.);
#276=ORIENTED_EDGE('',*,*,#189,.T.);
#277=ORIENTED_EDGE('',*,*,#184,.T.);
#278=ORIENTED_EDGE('',*,*,#185,.T.);
#279=TOROIDAL_SURFACE('',#340,0.178,0.025);
#280=TOROIDAL_SURFACE('',#348,0.178,0.025);
#281=TOROIDAL_SURFACE('',#356,0.178,0.025);
#282=TOROIDAL_SURFACE('',#364,0.178,0.025);
#283=TOROIDAL_SURFACE('',#371,0.1075,0.0175);
#284=TOROIDAL_SURFACE('',#383,0.1425,0.0175);
#285=STYLED_ITEM('',(#630),#303);
#286=STYLED_ITEM('',(#630),#304);
#287=STYLED_ITEM('',(#630),#305);
#288=STYLED_ITEM('',(#630),#306);
#289=STYLED_ITEM('',(#631),#307);
#290=STYLED_ITEM('',(#630),#308);
#291=STYLED_ITEM('',(#630),#309);
#292=STYLED_ITEM('',(#630),#310);
#293=STYLED_ITEM('',(#630),#311);
#294=STYLED_ITEM('',(#630),#312);
#295=STYLED_ITEM('',(#630),#313);
#296=STYLED_ITEM('',(#630),#314);
#297=STYLED_ITEM('',(#630),#315);
#298=STYLED_ITEM('',(#631),#316);
#299=STYLED_ITEM('',(#631),#317);
#300=STYLED_ITEM('',(#631),#318);
#301=STYLED_ITEM('',(#631),#319);
#302=STYLED_ITEM('',(#629),#13);
#303=ADVANCED_FACE('',(#40),#279,.T.);
#304=ADVANCED_FACE('',(#41),#34,.T.);
#305=ADVANCED_FACE('',(#42),#280,.T.);
#306=ADVANCED_FACE('',(#43),#17,.F.);
#307=ADVANCED_FACE('',(#44),#35,.T.);
#308=ADVANCED_FACE('',(#45),#281,.T.);
#309=ADVANCED_FACE('',(#46),#36,.T.);
#310=ADVANCED_FACE('',(#47),#282,.T.);
#311=ADVANCED_FACE('',(#48,#14),#18,.T.);
#312=ADVANCED_FACE('',(#49),#283,.T.);
#313=ADVANCED_FACE('',(#50),#37,.T.);
#314=ADVANCED_FACE('',(#51),#19,.T.);
#315=ADVANCED_FACE('',(#52),#284,.F.);
#316=ADVANCED_FACE('',(#53),#38,.T.);
#317=ADVANCED_FACE('',(#54,#15),#20,.F.);
#318=ADVANCED_FACE('',(#55),#39,.T.);
#319=ADVANCED_FACE('',(#56,#16),#21,.T.);
#320=CLOSED_SHELL('',(#303,#304,#305,#306,#307,#308,#309,#310,#311,#312,
#313,#314,#315,#316,#317,#318,#319));
#321=DERIVED_UNIT_ELEMENT(#323,1.);
#322=DERIVED_UNIT_ELEMENT(#614,3.);
#323=(
MASS_UNIT()
NAMED_UNIT(*)
SI_UNIT($,.GRAM.)
);
#324=DERIVED_UNIT((#321,#322));
#325=MEASURE_REPRESENTATION_ITEM('density measure',
POSITIVE_RATIO_MEASURE(1.),#324);
#326=PROPERTY_DEFINITION_REPRESENTATION(#331,#328);
#327=PROPERTY_DEFINITION_REPRESENTATION(#332,#329);
#328=REPRESENTATION('material name',(#330),#609);
#329=REPRESENTATION('density',(#325),#609);
#330=DESCRIPTIVE_REPRESENTATION_ITEM('Generic','Generic');
#331=PROPERTY_DEFINITION('material property','material name',#622);
#332=PROPERTY_DEFINITION('material property','density of part',#622);
#333=DATE_TIME_ROLE('creation_date');
#334=APPLIED_DATE_AND_TIME_ASSIGNMENT(#335,#333,(#622));
#335=DATE_AND_TIME(#336,#337);
#336=CALENDAR_DATE(2022,1,7);
#337=LOCAL_TIME(0,0,0.,#338);
#338=COORDINATED_UNIVERSAL_TIME_OFFSET(0,0,.BEHIND.);
#339=AXIS2_PLACEMENT_3D('placement',#513,#395,#396);
#340=AXIS2_PLACEMENT_3D('',#514,#397,#398);
#341=AXIS2_PLACEMENT_3D('',#516,#399,#400);
#342=AXIS2_PLACEMENT_3D('',#518,#401,#402);
#343=AXIS2_PLACEMENT_3D('',#519,#403,#404);
#344=AXIS2_PLACEMENT_3D('',#520,#405,#406);
#345=AXIS2_PLACEMENT_3D('',#523,#407,#408);
#346=AXIS2_PLACEMENT_3D('',#525,#409,#410);
#347=AXIS2_PLACEMENT_3D('',#527,#412,#413);
#348=AXIS2_PLACEMENT_3D('',#528,#414,#415);
#349=AXIS2_PLACEMENT_3D('',#531,#416,#417);
#350=AXIS2_PLACEMENT_3D('',#532,#418,#419);
#351=AXIS2_PLACEMENT_3D('',#533,#420,#421);
#352=AXIS2_PLACEMENT_3D('',#534,#422,#423);
#353=AXIS2_PLACEMENT_3D('',#535,#424,#425);
#354=AXIS2_PLACEMENT_3D('',#539,#427,#428);
#355=AXIS2_PLACEMENT_3D('',#540,#429,#430);
#356=AXIS2_PLACEMENT_3D('',#541,#431,#432);
#357=AXIS2_PLACEMENT_3D('',#543,#433,#434);
#358=AXIS2_PLACEMENT_3D('',#545,#435,#436);
#359=AXIS2_PLACEMENT_3D('',#546,#437,#438);
#360=AXIS2_PLACEMENT_3D('',#547,#439,#440);
#361=AXIS2_PLACEMENT_3D('',#550,#441,#442);
#362=AXIS2_PLACEMENT_3D('',#552,#443,#444);
#363=AXIS2_PLACEMENT_3D('',#554,#446,#447);
#364=AXIS2_PLACEMENT_3D('',#555,#448,#449);
#365=AXIS2_PLACEMENT_3D('',#558,#450,#451);
#366=AXIS2_PLACEMENT_3D('',#559,#452,#453);
#367=AXIS2_PLACEMENT_3D('',#560,#454,#455);
#368=AXIS2_PLACEMENT_3D('',#561,#456,#457);
#369=AXIS2_PLACEMENT_3D('',#564,#458,#459);
#370=AXIS2_PLACEMENT_3D('',#565,#460,#461);
#371=AXIS2_PLACEMENT_3D('',#566,#462,#463);
#372=AXIS2_PLACEMENT_3D('',#569,#464,#465);
#373=AXIS2_PLACEMENT_3D('',#571,#466,#467);
#374=AXIS2_PLACEMENT_3D('',#573,#468,#469);
#375=AXIS2_PLACEMENT_3D('',#575,#470,#471);
#376=AXIS2_PLACEMENT_3D('',#576,#472,#473);
#377=AXIS2_PLACEMENT_3D('',#577,#474,#475);
#378=AXIS2_PLACEMENT_3D('',#578,#476,#477);
#379=AXIS2_PLACEMENT_3D('',#582,#479,#480);
#380=AXIS2_PLACEMENT_3D('',#584,#481,#482);
#381=AXIS2_PLACEMENT_3D('',#585,#483,#484);
#382=AXIS2_PLACEMENT_3D('',#586,#485,#486);
#383=AXIS2_PLACEMENT_3D('',#587,#487,#488);
#384=AXIS2_PLACEMENT_3D('',#588,#489,#490);
#385=AXIS2_PLACEMENT_3D('',#589,#491,#492);
#386=AXIS2_PLACEMENT_3D('',#593,#494,#495);
#387=AXIS2_PLACEMENT_3D('',#594,#496,#497);
#388=AXIS2_PLACEMENT_3D('',#595,#498,#499);
#389=AXIS2_PLACEMENT_3D('',#598,#500,#501);
#390=AXIS2_PLACEMENT_3D('',#599,#502,#503);
#391=AXIS2_PLACEMENT_3D('',#600,#504,#505);
#392=AXIS2_PLACEMENT_3D('',#603,#506,#507);
#393=AXIS2_PLACEMENT_3D('',#604,#508,#509);
#394=AXIS2_PLACEMENT_3D('',#606,#511,#512);
#395=DIRECTION('axis',(0.,0.,1.));
#396=DIRECTION('refdir',(1.,0.,0.));
#397=DIRECTION('center_axis',(0.,-1.,0.));
#398=DIRECTION('ref_axis',(1.,0.,1.25216695193718E-16));
#399=DIRECTION('center_axis',(0.,-1.,0.));
#400=DIRECTION('ref_axis',(1.,0.,1.25216695193718E-16));
#401=DIRECTION('center_axis',(2.47681375108453E-16,0.,-1.));
#402=DIRECTION('ref_axis',(-1.,0.,-2.47681375108453E-16));
#403=DIRECTION('center_axis',(0.,1.,0.));
#404=DIRECTION('ref_axis',(1.,0.,0.));
#405=DIRECTION('center_axis',(0.,1.,0.));
#406=DIRECTION('ref_axis',(1.,0.,0.));
#407=DIRECTION('center_axis',(0.,1.,0.));
#408=DIRECTION('ref_axis',(-1.,0.,-1.22464679914735E-16));
#409=DIRECTION('center_axis',(0.,1.,0.));
#410=DIRECTION('ref_axis',(-1.,0.,-1.22464679914735E-16));
#411=DIRECTION('',(0.,1.,0.));
#412=DIRECTION('center_axis',(0.,1.,0.));
#413=DIRECTION('ref_axis',(-1.,0.,-1.22464679914735E-16));
#414=DIRECTION('center_axis',(0.,-1.,0.));
#415=DIRECTION('ref_axis',(0.,0.,1.));
#416=DIRECTION('center_axis',(0.,-1.,0.));
#417=DIRECTION('ref_axis',(-1.,0.,-1.22464679914735E-16));
#418=DIRECTION('center_axis',(0.,-1.,0.));
#419=DIRECTION('ref_axis',(-1.,0.,-1.22464679914735E-16));
#420=DIRECTION('center_axis',(1.,0.,-1.22464679914735E-16));
#421=DIRECTION('ref_axis',(-1.22464679914735E-16,0.,-1.));
#422=DIRECTION('center_axis',(0.,1.,0.));
#423=DIRECTION('ref_axis',(0.,0.,1.));
#424=DIRECTION('center_axis',(0.,1.,0.));
#425=DIRECTION('ref_axis',(1.,0.,0.));
#426=DIRECTION('',(0.,1.,0.));
#427=DIRECTION('center_axis',(0.,1.,0.));
#428=DIRECTION('ref_axis',(1.,0.,0.));
#429=DIRECTION('center_axis',(0.,1.,0.));
#430=DIRECTION('ref_axis',(1.,0.,0.));
#431=DIRECTION('center_axis',(0.,1.,0.));
#432=DIRECTION('ref_axis',(1.,0.,1.25216695193718E-16));
#433=DIRECTION('center_axis',(0.,-1.,0.));
#434=DIRECTION('ref_axis',(1.,0.,1.25216695193718E-16));
#435=DIRECTION('center_axis',(-2.47681375108453E-16,0.,1.));
#436=DIRECTION('ref_axis',(-1.,0.,-2.47681375108453E-16));
#437=DIRECTION('center_axis',(0.,1.,0.));
#438=DIRECTION('ref_axis',(1.,0.,0.));
#439=DIRECTION('center_axis',(0.,1.,0.));
#440=DIRECTION('ref_axis',(1.,0.,0.));
#441=DIRECTION('center_axis',(0.,1.,0.));
#442=DIRECTION('ref_axis',(-1.,0.,-1.22464679914735E-16));
#443=DIRECTION('center_axis',(0.,1.,0.));
#444=DIRECTION('ref_axis',(-1.,0.,-1.22464679914735E-16));
#445=DIRECTION('',(0.,-1.,0.));
#446=DIRECTION('center_axis',(0.,1.,0.));
#447=DIRECTION('ref_axis',(-1.,0.,-1.22464679914735E-16));
#448=DIRECTION('center_axis',(0.,1.,0.));
#449=DIRECTION('ref_axis',(0.,0.,1.));
#450=DIRECTION('center_axis',(0.,-1.,0.));
#451=DIRECTION('ref_axis',(-1.,0.,-1.22464679914735E-16));
#452=DIRECTION('center_axis',(-1.,0.,1.22464679914735E-16));
#453=DIRECTION('ref_axis',(-1.22464679914735E-16,0.,-1.));
#454=DIRECTION('center_axis',(0.,-1.,0.));
#455=DIRECTION('ref_axis',(-1.,0.,-1.22464679914735E-16));
#456=DIRECTION('center_axis',(0.,1.,0.));
#457=DIRECTION('ref_axis',(0.,0.,1.));
#458=DIRECTION('center_axis',(0.,1.,0.));
#459=DIRECTION('ref_axis',(-1.,0.,1.22464679914735E-16));
#460=DIRECTION('center_axis',(0.,1.,0.));
#461=DIRECTION('ref_axis',(-1.,0.,1.22464679914735E-16));
#462=DIRECTION('center_axis',(0.,1.,0.));
#463=DIRECTION('ref_axis',(0.,0.,1.));
#464=DIRECTION('center_axis',(0.,-1.,0.));
#465=DIRECTION('ref_axis',(-1.,0.,-1.22464679914735E-16));
#466=DIRECTION('center_axis',(-1.,0.,1.22464679914735E-16));
#467=DIRECTION('ref_axis',(-1.22464679914735E-16,0.,-1.));
#468=DIRECTION('center_axis',(0.,1.,0.));
#469=DIRECTION('ref_axis',(-1.,0.,-1.22464679914735E-16));
#470=DIRECTION('center_axis',(0.,1.,0.));
#471=DIRECTION('ref_axis',(-1.,0.,-1.22464679914735E-16));
#472=DIRECTION('center_axis',(0.,1.,0.));
#473=DIRECTION('ref_axis',(-1.,0.,-1.22464679914735E-16));
#474=DIRECTION('center_axis',(0.,-1.,0.));
#475=DIRECTION('ref_axis',(-1.,0.,-1.22464679914735E-16));
#476=DIRECTION('center_axis',(0.,1.,0.));
#477=DIRECTION('ref_axis',(1.,0.,0.));
#478=DIRECTION('',(0.,-1.,0.));
#479=DIRECTION('center_axis',(0.,-1.,0.));
#480=DIRECTION('ref_axis',(-1.,0.,1.22464679914735E-16));
#481=DIRECTION('center_axis',(0.,-1.,0.));
#482=DIRECTION('ref_axis',(-1.,0.,1.22464679914735E-16));
#483=DIRECTION('center_axis',(0.,-1.,0.));
#484=DIRECTION('ref_axis',(-1.,0.,1.22464679914735E-16));
#485=DIRECTION('center_axis',(0.,1.,0.));
#486=DIRECTION('ref_axis',(0.,0.,1.));
#487=DIRECTION('center_axis',(0.,-1.,0.));
#488=DIRECTION('ref_axis',(0.,0.,-1.));
#489=DIRECTION('center_axis',(-1.,0.,-1.22464679914735E-16));
#490=DIRECTION('ref_axis',(-1.22464679914735E-16,0.,1.));
#491=DIRECTION('center_axis',(0.,1.,0.));
#492=DIRECTION('ref_axis',(1.,0.,0.));
#493=DIRECTION('',(0.,-1.,0.));
#494=DIRECTION('center_axis',(0.,-1.,0.));
#495=DIRECTION('ref_axis',(1.,0.,0.));
#496=DIRECTION('center_axis',(0.,-1.,0.));
#497=DIRECTION('ref_axis',(1.,0.,0.));
#498=DIRECTION('center_axis',(0.,1.,0.));
#499=DIRECTION('ref_axis',(0.,0.,1.));
#500=DIRECTION('center_axis',(0.,-1.,0.));
#501=DIRECTION('ref_axis',(-1.,0.,0.));
#502=DIRECTION('center_axis',(0.,-1.,0.));
#503=DIRECTION('ref_axis',(-1.,0.,0.));
#504=DIRECTION('center_axis',(0.,1.,0.));
#505=DIRECTION('ref_axis',(-1.,0.,0.));
#506=DIRECTION('center_axis',(0.,1.,0.));
#507=DIRECTION('ref_axis',(-1.,0.,0.));
#508=DIRECTION('center_axis',(0.,1.,0.));
#509=DIRECTION('ref_axis',(-1.,0.,0.));
#510=DIRECTION('',(0.,-1.,0.));
#511=DIRECTION('center_axis',(0.,1.,0.));
#512=DIRECTION('ref_axis',(0.,0.,1.));
#513=CARTESIAN_POINT('',(0.,0.,0.));
#514=CARTESIAN_POINT('Origin',(0.,-0.337419871588754,0.));
#515=CARTESIAN_POINT('',(-0.203,-0.337419871588754,-5.0279319147016E-17));
#516=CARTESIAN_POINT('Origin',(0.,-0.337419871588754,0.));
#517=CARTESIAN_POINT('',(-0.18,-0.3125,-4.45826475195216E-17));
#518=CARTESIAN_POINT('Origin',(-0.178,-0.337419871588754,-4.40872847693047E-17));
#519=CARTESIAN_POINT('Origin',(0.,-0.3125,0.));
#520=CARTESIAN_POINT('Origin',(0.,-0.3125,0.));
#521=CARTESIAN_POINT('',(0.203,-0.6625,0.));
#522=CARTESIAN_POINT('',(-2.48603300226913E-17,-0.6625,-0.203));
#523=CARTESIAN_POINT('Origin',(0.,-0.6625,0.));
#524=CARTESIAN_POINT('',(-0.203,-0.6625,2.48603300226913E-17));
#525=CARTESIAN_POINT('Origin',(0.,-0.6625,0.));
#526=CARTESIAN_POINT('',(-0.203,-0.3125,2.48603300226913E-17));
#527=CARTESIAN_POINT('Origin',(0.,-0.6625,0.));
#528=CARTESIAN_POINT('Origin',(0.,-0.6625,0.));
#529=CARTESIAN_POINT('',(0.178,-0.6875,4.35974260496458E-17));
#530=CARTESIAN_POINT('',(-2.17987130248229E-17,-0.6875,-0.178));
#531=CARTESIAN_POINT('Origin',(0.,-0.6875,0.));
#532=CARTESIAN_POINT('Origin',(0.,-0.6875,0.));
#533=CARTESIAN_POINT('Origin',(-2.17987130248229E-17,-0.6625,-0.178));
#534=CARTESIAN_POINT('Origin',(0.,-0.6875,0.));
#535=CARTESIAN_POINT('Origin',(0.,-0.2875,0.));
#536=CARTESIAN_POINT('',(-0.18,-0.2875,2.20436423846524E-17));
#537=CARTESIAN_POINT('',(-0.18,-0.2875,2.20436423846524E-17));
#538=CARTESIAN_POINT('',(0.18,-0.2875,0.));
#539=CARTESIAN_POINT('Origin',(0.,-0.2875,0.));
#540=CARTESIAN_POINT('Origin',(0.,-0.2875,0.));
#541=CARTESIAN_POINT('Origin',(0.,0.337419871588754,0.));
#542=CARTESIAN_POINT('',(-0.203,0.337419871588754,-5.0279319147016E-17));
#543=CARTESIAN_POINT('Origin',(0.,0.337419871588754,0.));
#544=CARTESIAN_POINT('',(-0.18,0.3125,-4.45826475195216E-17));
#545=CARTESIAN_POINT('Origin',(-0.178,0.337419871588754,-4.40872847693047E-17));
#546=CARTESIAN_POINT('Origin',(0.,0.3125,0.));
#547=CARTESIAN_POINT('Origin',(0.,0.3125,0.));
#548=CARTESIAN_POINT('',(0.203,0.6625,0.));
#549=CARTESIAN_POINT('',(-2.48603300226913E-17,0.6625,-0.203));
#550=CARTESIAN_POINT('Origin',(0.,0.6625,0.));
#551=CARTESIAN_POINT('',(-0.203,0.6625,2.48603300226913E-17));
#552=CARTESIAN_POINT('Origin',(0.,0.6625,0.));
#553=CARTESIAN_POINT('',(-0.203,0.3125,2.48603300226913E-17));
#554=CARTESIAN_POINT('Origin',(0.,0.6625,0.));
#555=CARTESIAN_POINT('Origin',(0.,0.6625,0.));
#556=CARTESIAN_POINT('',(0.178,0.6875,4.35974260496458E-17));
#557=CARTESIAN_POINT('',(-2.17987130248229E-17,0.6875,-0.178));
#558=CARTESIAN_POINT('Origin',(0.,0.6875,0.));
#559=CARTESIAN_POINT('Origin',(-2.17987130248229E-17,0.6625,-0.178));
#560=CARTESIAN_POINT('Origin',(0.,0.6875,0.));
#561=CARTESIAN_POINT('Origin',(0.,0.6875,0.));
#562=CARTESIAN_POINT('',(0.1425,0.6875,-3.49024337756996E-17));
#563=CARTESIAN_POINT('',(-1.74512168878498E-17,0.6875,0.1425));
#564=CARTESIAN_POINT('Origin',(0.,0.6875,0.));
#565=CARTESIAN_POINT('Origin',(0.,0.6875,0.));
#566=CARTESIAN_POINT('Origin',(0.,0.795,0.));
#567=CARTESIAN_POINT('',(0.1075,0.8125,2.63299061816681E-17));
#568=CARTESIAN_POINT('',(-1.3164953090834E-17,0.8125,-0.1075));
#569=CARTESIAN_POINT('Origin',(0.,0.8125,0.));
#570=CARTESIAN_POINT('',(-1.53080849893419E-17,0.795,-0.125));
#571=CARTESIAN_POINT('Origin',(-1.3164953090834E-17,0.795,-0.1075));
#572=CARTESIAN_POINT('',(-0.125,0.795,1.53080849893419E-17));
#573=CARTESIAN_POINT('Origin',(0.,0.795,0.));
#574=CARTESIAN_POINT('',(0.125,0.795,0.));
#575=CARTESIAN_POINT('Origin',(0.,0.795,0.));
#576=CARTESIAN_POINT('Origin',(0.,0.795,0.));
#577=CARTESIAN_POINT('Origin',(0.,0.8125,0.));
#578=CARTESIAN_POINT('Origin',(0.,0.6875,0.));
#579=CARTESIAN_POINT('',(-0.125,0.705,1.53080849893419E-17));
#580=CARTESIAN_POINT('',(-0.125,0.6875,1.53080849893419E-17));
#581=CARTESIAN_POINT('',(-1.53080849893419E-17,0.705,0.125));
#582=CARTESIAN_POINT('Origin',(0.,0.705,0.));
#583=CARTESIAN_POINT('',(0.125,0.705,0.));
#584=CARTESIAN_POINT('Origin',(0.,0.705,0.));
#585=CARTESIAN_POINT('Origin',(0.,0.705,0.));
#586=CARTESIAN_POINT('Origin',(0.,0.8125,0.));
#587=CARTESIAN_POINT('Origin',(0.,0.705,0.));
#588=CARTESIAN_POINT('Origin',(-1.74512168878498E-17,0.705,0.1425));
#589=CARTESIAN_POINT('Origin',(0.,0.2875,0.));
#590=CARTESIAN_POINT('',(-0.18,0.2875,2.20436423846524E-17));
#591=CARTESIAN_POINT('',(-0.18,0.2875,2.20436423846524E-17));
#592=CARTESIAN_POINT('',(0.18,0.2875,0.));
#593=CARTESIAN_POINT('Origin',(0.,0.2875,0.));
#594=CARTESIAN_POINT('Origin',(0.,0.2875,0.));
#595=CARTESIAN_POINT('Origin',(0.,-0.2875,0.));
#596=CARTESIAN_POINT('',(-0.2025,-0.2875,0.));
#597=CARTESIAN_POINT('',(0.2025,-0.2875,-2.47990976827339E-17));
#598=CARTESIAN_POINT('Origin',(0.,-0.2875,0.));
#599=CARTESIAN_POINT('Origin',(0.,-0.2875,0.));
#600=CARTESIAN_POINT('Origin',(0.,0.,0.));
#601=CARTESIAN_POINT('',(-0.2025,0.2875,0.));
#602=CARTESIAN_POINT('',(0.2025,0.2875,-2.47990976827339E-17));
#603=CARTESIAN_POINT('Origin',(0.,0.2875,0.));
#604=CARTESIAN_POINT('Origin',(0.,0.2875,0.));
#605=CARTESIAN_POINT('',(0.2025,0.,-2.47990976827339E-17));
#606=CARTESIAN_POINT('Origin',(0.,0.2875,0.));
#607=UNCERTAINTY_MEASURE_WITH_UNIT(LENGTH_MEASURE(0.000393700787401575),
#612,'DISTANCE_ACCURACY_VALUE',
'Maximum model space distance between geometric entities at asserted c
onnectivities');
#608=UNCERTAINTY_MEASURE_WITH_UNIT(LENGTH_MEASURE(0.000393700787401575),
#612,'DISTANCE_ACCURACY_VALUE',
'Maximum model space distance between geometric entities at asserted c
onnectivities');
#609=(
GEOMETRIC_REPRESENTATION_CONTEXT(3)
GLOBAL_UNCERTAINTY_ASSIGNED_CONTEXT((#607))
GLOBAL_UNIT_ASSIGNED_CONTEXT((#612,#616,#617))
REPRESENTATION_CONTEXT('','3D')
);
#610=(
GEOMETRIC_REPRESENTATION_CONTEXT(3)
GLOBAL_UNCERTAINTY_ASSIGNED_CONTEXT((#608))
GLOBAL_UNIT_ASSIGNED_CONTEXT((#612,#616,#617))
REPRESENTATION_CONTEXT('','3D')
);
#611=DIMENSIONAL_EXPONENTS(1.,0.,0.,0.,0.,0.,0.);
#612=(
CONVERSION_BASED_UNIT('inch',#615)
LENGTH_UNIT()
NAMED_UNIT(#611)
);
#613=(
LENGTH_UNIT()
NAMED_UNIT(*)
SI_UNIT(.MILLI.,.METRE.)
);
#614=(
LENGTH_UNIT()
NAMED_UNIT(*)
SI_UNIT(.CENTI.,.METRE.)
);
#615=LENGTH_MEASURE_WITH_UNIT(LENGTH_MEASURE(25.4),#613);
#616=(
NAMED_UNIT(*)
PLANE_ANGLE_UNIT()
SI_UNIT($,.RADIAN.)
);
#617=(
NAMED_UNIT(*)
SI_UNIT($,.STERADIAN.)
SOLID_ANGLE_UNIT()
);
#618=SHAPE_DEFINITION_REPRESENTATION(#619,#620);
#619=PRODUCT_DEFINITION_SHAPE('',$,#622);
#620=SHAPE_REPRESENTATION('',(#339),#609);
#621=PRODUCT_DEFINITION_CONTEXT('part definition',#626,'design');
#622=PRODUCT_DEFINITION('Part1','Part1',#623,#621);
#623=PRODUCT_DEFINITION_FORMATION('',$,#628);
#624=PRODUCT_RELATED_PRODUCT_CATEGORY('Part1','Part1',(#628));
#625=APPLICATION_PROTOCOL_DEFINITION('international standard',
'automotive_design',2009,#626);
#626=APPLICATION_CONTEXT(
'Core Data for Automotive Mechanical Design Process');
#627=PRODUCT_CONTEXT('part definition',#626,'mechanical');
#628=PRODUCT('Part1','Part1',$,(#627));
#629=PRESENTATION_STYLE_ASSIGNMENT((#632));
#630=PRESENTATION_STYLE_ASSIGNMENT((#633));
#631=PRESENTATION_STYLE_ASSIGNMENT((#634));
#632=SURFACE_STYLE_USAGE(.BOTH.,#641);
#633=SURFACE_STYLE_USAGE(.BOTH.,#642);
#634=SURFACE_STYLE_USAGE(.BOTH.,#643);
#635=SURFACE_STYLE_RENDERING_WITH_PROPERTIES($,#653,(#638));
#636=SURFACE_STYLE_RENDERING_WITH_PROPERTIES($,#654,(#639));
#637=SURFACE_STYLE_RENDERING_WITH_PROPERTIES($,#655,(#640));
#638=SURFACE_STYLE_TRANSPARENT(0.);
#639=SURFACE_STYLE_TRANSPARENT(0.);
#640=SURFACE_STYLE_TRANSPARENT(0.);
#641=SURFACE_SIDE_STYLE('',(#644,#635));
#642=SURFACE_SIDE_STYLE('',(#645,#636));
#643=SURFACE_SIDE_STYLE('',(#646,#637));
#644=SURFACE_STYLE_FILL_AREA(#647);
#645=SURFACE_STYLE_FILL_AREA(#648);
#646=SURFACE_STYLE_FILL_AREA(#649);
#647=FILL_AREA_STYLE('',(#650));
#648=FILL_AREA_STYLE('',(#651));
#649=FILL_AREA_STYLE('',(#652));
#650=FILL_AREA_STYLE_COLOUR('',#653);
#651=FILL_AREA_STYLE_COLOUR('',#654);
#652=FILL_AREA_STYLE_COLOUR('',#655);
#653=COLOUR_RGB('',0.749019607843137,0.749019607843137,0.749019607843137);
#654=COLOUR_RGB('',0.968627450980392,0.933333333333333,0.792156862745098);
#655=COLOUR_RGB('',0.96078431372549,0.96078431372549,0.96078431372549);
ENDSEC;
END-ISO-10303-21;
