ISO-10303-21;
HEADER;
/* Generated by software containing ST-Developer
 * from STEP Tools, Inc. (www.steptools.com) 
 */

FILE_DESCRIPTION(
/* description */ (''),
/* implementation_level */ '2;1');

FILE_NAME(
/* name */ 'C:\\Temp\\JLS-1-30A.stp',
/* time_stamp */ '2022-06-30T07:55:36-05:00',
/* author */ ('myork'),
/* organization */ (''),
/* preprocessor_version */ 'ST-DEVELOPER v18.1',
/* originating_system */ 'Autodesk Inventor 2021',
/* authorisation */ '');

FILE_SCHEMA (('AUTOMOTIVE_DESIGN { 1 0 10303 214 3 1 1 }'));
ENDSEC;

DATA;
#10=MECHANICAL_DESIGN_GEOMETRIC_PRESENTATION_REPRESENTATION('',(#184,#185,
#186,#187,#188,#189,#190,#191,#192,#193,#194,#195),#395);
#11=SHAPE_REPRESENTATION_RELATIONSHIP('SRR','None',#405,#12);
#12=ADVANCED_BREP_SHAPE_REPRESENTATION('',(#13),#394);
#13=MANIFOLD_SOLID_BREP('Solid1',#207);
#14=TOROIDAL_SURFACE('',#238,0.38425,0.022);
#15=TOROIDAL_SURFACE('',#254,0.38425,0.022);
#16=CYLINDRICAL_SURFACE('',#234,0.40625);
#17=CYLINDRICAL_SURFACE('',#247,0.40625);
#18=CYLINDRICAL_SURFACE('',#259,0.375);
#19=LINE('',#345,#24);
#20=LINE('',#353,#25);
#21=LINE('',#368,#26);
#22=LINE('',#376,#27);
#23=LINE('',#391,#28);
#24=VECTOR('',#274,0.399255385127675);
#25=VECTOR('',#283,0.40625);
#26=VECTOR('',#302,0.399255385127675);
#27=VECTOR('',#311,0.40625);
#28=VECTOR('',#332,0.375);
#29=CONICAL_SURFACE('',#231,0.399255385127675,0.436332312998583);
#30=CONICAL_SURFACE('',#243,0.399255385127675,0.436332312998583);
#31=FACE_BOUND('',#45,.T.);
#32=FACE_BOUND('',#53,.T.);
#33=FACE_OUTER_BOUND('',#44,.T.);
#34=FACE_OUTER_BOUND('',#46,.T.);
#35=FACE_OUTER_BOUND('',#47,.T.);
#36=FACE_OUTER_BOUND('',#48,.T.);
#37=FACE_OUTER_BOUND('',#49,.T.);
#38=FACE_OUTER_BOUND('',#50,.T.);
#39=FACE_OUTER_BOUND('',#51,.T.);
#40=FACE_OUTER_BOUND('',#52,.T.);
#41=FACE_OUTER_BOUND('',#54,.T.);
#42=FACE_OUTER_BOUND('',#55,.T.);
#43=FACE_OUTER_BOUND('',#56,.T.);
#44=EDGE_LOOP('',(#126));
#45=EDGE_LOOP('',(#127,#128));
#46=EDGE_LOOP('',(#129,#130,#131,#132,#133));
#47=EDGE_LOOP('',(#134,#135,#136,#137,#138,#139,#140));
#48=EDGE_LOOP('',(#141,#142,#143,#144,#145,#146,#147));
#49=EDGE_LOOP('',(#148,#149));
#50=EDGE_LOOP('',(#150,#151,#152,#153,#154));
#51=EDGE_LOOP('',(#155,#156,#157,#158,#159,#160,#161));
#52=EDGE_LOOP('',(#162));
#53=EDGE_LOOP('',(#163,#164));
#54=EDGE_LOOP('',(#165,#166,#167,#168,#169,#170,#171));
#55=EDGE_LOOP('',(#172,#173));
#56=EDGE_LOOP('',(#174,#175,#176,#177,#178,#179));
#57=CIRCLE('',#228,0.39226077025535);
#58=CIRCLE('',#229,0.375);
#59=CIRCLE('',#230,0.375);
#60=CIRCLE('',#232,0.40625);
#61=CIRCLE('',#233,0.40625);
#62=CIRCLE('',#235,0.40625);
#63=CIRCLE('',#236,0.40625);
#64=CIRCLE('',#237,0.40625);
#65=CIRCLE('',#239,0.38425);
#66=CIRCLE('',#240,0.38425);
#67=CIRCLE('',#241,0.022);
#68=CIRCLE('',#244,0.40625);
#69=CIRCLE('',#245,0.40625);
#70=CIRCLE('',#246,0.39226077025535);
#71=CIRCLE('',#248,0.40625);
#72=CIRCLE('',#249,0.40625);
#73=CIRCLE('',#250,0.40625);
#74=CIRCLE('',#252,0.375);
#75=CIRCLE('',#253,0.375);
#76=CIRCLE('',#255,0.38425);
#77=CIRCLE('',#256,0.022);
#78=CIRCLE('',#257,0.38425);
#79=VERTEX_POINT('',#335);
#80=VERTEX_POINT('',#337);
#81=VERTEX_POINT('',#338);
#82=VERTEX_POINT('',#342);
#83=VERTEX_POINT('',#343);
#84=VERTEX_POINT('',#348);
#85=VERTEX_POINT('',#349);
#86=VERTEX_POINT('',#351);
#87=VERTEX_POINT('',#356);
#88=VERTEX_POINT('',#357);
#89=VERTEX_POINT('',#363);
#90=VERTEX_POINT('',#364);
#91=VERTEX_POINT('',#367);
#92=VERTEX_POINT('',#371);
#93=VERTEX_POINT('',#372);
#94=VERTEX_POINT('',#374);
#95=VERTEX_POINT('',#379);
#96=VERTEX_POINT('',#380);
#97=VERTEX_POINT('',#384);
#98=VERTEX_POINT('',#385);
#99=EDGE_CURVE('',#79,#79,#57,.T.);
#100=EDGE_CURVE('',#80,#81,#58,.T.);
#101=EDGE_CURVE('',#81,#80,#59,.T.);
#102=EDGE_CURVE('',#82,#83,#60,.T.);
#103=EDGE_CURVE('',#82,#79,#19,.T.);
#104=EDGE_CURVE('',#83,#82,#61,.T.);
#105=EDGE_CURVE('',#84,#85,#62,.T.);
#106=EDGE_CURVE('',#85,#86,#63,.T.);
#107=EDGE_CURVE('',#86,#83,#20,.T.);
#108=EDGE_CURVE('',#86,#84,#64,.T.);
#109=EDGE_CURVE('',#87,#88,#65,.T.);
#110=EDGE_CURVE('',#88,#87,#66,.T.);
#111=EDGE_CURVE('',#88,#85,#67,.T.);
#112=EDGE_CURVE('',#89,#90,#68,.T.);
#113=EDGE_CURVE('',#90,#89,#69,.T.);
#114=EDGE_CURVE('',#89,#91,#21,.T.);
#115=EDGE_CURVE('',#91,#91,#70,.T.);
#116=EDGE_CURVE('',#92,#93,#71,.T.);
#117=EDGE_CURVE('',#94,#92,#72,.T.);
#118=EDGE_CURVE('',#94,#90,#22,.T.);
#119=EDGE_CURVE('',#93,#94,#73,.T.);
#120=EDGE_CURVE('',#95,#96,#74,.T.);
#121=EDGE_CURVE('',#96,#95,#75,.T.);
#122=EDGE_CURVE('',#97,#98,#76,.T.);
#123=EDGE_CURVE('',#98,#93,#77,.T.);
#124=EDGE_CURVE('',#98,#97,#78,.T.);
#125=EDGE_CURVE('',#96,#81,#23,.T.);
#126=ORIENTED_EDGE('',*,*,#99,.T.);
#127=ORIENTED_EDGE('',*,*,#100,.T.);
#128=ORIENTED_EDGE('',*,*,#101,.T.);
#129=ORIENTED_EDGE('',*,*,#102,.F.);
#130=ORIENTED_EDGE('',*,*,#103,.T.);
#131=ORIENTED_EDGE('',*,*,#99,.F.);
#132=ORIENTED_EDGE('',*,*,#103,.F.);
#133=ORIENTED_EDGE('',*,*,#104,.F.);
#134=ORIENTED_EDGE('',*,*,#105,.T.);
#135=ORIENTED_EDGE('',*,*,#106,.T.);
#136=ORIENTED_EDGE('',*,*,#107,.T.);
#137=ORIENTED_EDGE('',*,*,#104,.T.);
#138=ORIENTED_EDGE('',*,*,#102,.T.);
#139=ORIENTED_EDGE('',*,*,#107,.F.);
#140=ORIENTED_EDGE('',*,*,#108,.T.);
#141=ORIENTED_EDGE('',*,*,#109,.F.);
#142=ORIENTED_EDGE('',*,*,#110,.F.);
#143=ORIENTED_EDGE('',*,*,#111,.T.);
#144=ORIENTED_EDGE('',*,*,#105,.F.);
#145=ORIENTED_EDGE('',*,*,#108,.F.);
#146=ORIENTED_EDGE('',*,*,#106,.F.);
#147=ORIENTED_EDGE('',*,*,#111,.F.);
#148=ORIENTED_EDGE('',*,*,#109,.T.);
#149=ORIENTED_EDGE('',*,*,#110,.T.);
#150=ORIENTED_EDGE('',*,*,#112,.T.);
#151=ORIENTED_EDGE('',*,*,#113,.T.);
#152=ORIENTED_EDGE('',*,*,#114,.T.);
#153=ORIENTED_EDGE('',*,*,#115,.T.);
#154=ORIENTED_EDGE('',*,*,#114,.F.);
#155=ORIENTED_EDGE('',*,*,#116,.F.);
#156=ORIENTED_EDGE('',*,*,#117,.F.);
#157=ORIENTED_EDGE('',*,*,#118,.T.);
#158=ORIENTED_EDGE('',*,*,#112,.F.);
#159=ORIENTED_EDGE('',*,*,#113,.F.);
#160=ORIENTED_EDGE('',*,*,#118,.F.);
#161=ORIENTED_EDGE('',*,*,#119,.F.);
#162=ORIENTED_EDGE('',*,*,#115,.F.);
#163=ORIENTED_EDGE('',*,*,#120,.T.);
#164=ORIENTED_EDGE('',*,*,#121,.T.);
#165=ORIENTED_EDGE('',*,*,#122,.T.);
#166=ORIENTED_EDGE('',*,*,#123,.T.);
#167=ORIENTED_EDGE('',*,*,#119,.T.);
#168=ORIENTED_EDGE('',*,*,#117,.T.);
#169=ORIENTED_EDGE('',*,*,#116,.T.);
#170=ORIENTED_EDGE('',*,*,#123,.F.);
#171=ORIENTED_EDGE('',*,*,#124,.T.);
#172=ORIENTED_EDGE('',*,*,#122,.F.);
#173=ORIENTED_EDGE('',*,*,#124,.F.);
#174=ORIENTED_EDGE('',*,*,#120,.F.);
#175=ORIENTED_EDGE('',*,*,#121,.F.);
#176=ORIENTED_EDGE('',*,*,#125,.T.);
#177=ORIENTED_EDGE('',*,*,#100,.F.);
#178=ORIENTED_EDGE('',*,*,#101,.F.);
#179=ORIENTED_EDGE('',*,*,#125,.F.);
#180=PLANE('',#227);
#181=PLANE('',#242);
#182=PLANE('',#251);
#183=PLANE('',#258);
#184=STYLED_ITEM('',(#415),#196);
#185=STYLED_ITEM('',(#415),#197);
#186=STYLED_ITEM('',(#415),#198);
#187=STYLED_ITEM('',(#415),#199);
#188=STYLED_ITEM('',(#415),#200);
#189=STYLED_ITEM('',(#415),#201);
#190=STYLED_ITEM('',(#415),#202);
#191=STYLED_ITEM('',(#415),#203);
#192=STYLED_ITEM('',(#415),#204);
#193=STYLED_ITEM('',(#415),#205);
#194=STYLED_ITEM('',(#416),#206);
#195=STYLED_ITEM('',(#414),#13);
#196=ADVANCED_FACE('',(#33,#31),#180,.T.);
#197=ADVANCED_FACE('',(#34),#29,.T.);
#198=ADVANCED_FACE('',(#35),#16,.T.);
#199=ADVANCED_FACE('',(#36),#14,.T.);
#200=ADVANCED_FACE('',(#37),#181,.F.);
#201=ADVANCED_FACE('',(#38),#30,.T.);
#202=ADVANCED_FACE('',(#39),#17,.T.);
#203=ADVANCED_FACE('',(#40,#32),#182,.F.);
#204=ADVANCED_FACE('',(#41),#15,.T.);
#205=ADVANCED_FACE('',(#42),#183,.T.);
#206=ADVANCED_FACE('',(#43),#18,.T.);
#207=CLOSED_SHELL('',(#196,#197,#198,#199,#200,#201,#202,#203,#204,#205,
#206));
#208=DERIVED_UNIT_ELEMENT(#210,1.);
#209=DERIVED_UNIT_ELEMENT(#399,3.);
#210=(
MASS_UNIT()
NAMED_UNIT(*)
SI_UNIT($,.GRAM.)
);
#211=DERIVED_UNIT((#208,#209));
#212=MEASURE_REPRESENTATION_ITEM('density measure',
POSITIVE_RATIO_MEASURE(1.),#211);
#213=PROPERTY_DEFINITION_REPRESENTATION(#218,#215);
#214=PROPERTY_DEFINITION_REPRESENTATION(#219,#216);
#215=REPRESENTATION('material name',(#217),#394);
#216=REPRESENTATION('density',(#212),#394);
#217=DESCRIPTIVE_REPRESENTATION_ITEM('Generic','Generic');
#218=PROPERTY_DEFINITION('material property','material name',#407);
#219=PROPERTY_DEFINITION('material property','density of part',#407);
#220=DATE_TIME_ROLE('creation_date');
#221=APPLIED_DATE_AND_TIME_ASSIGNMENT(#222,#220,(#407));
#222=DATE_AND_TIME(#223,#224);
#223=CALENDAR_DATE(2022,30,6);
#224=LOCAL_TIME(0,0,0.,#225);
#225=COORDINATED_UNIVERSAL_TIME_OFFSET(0,0,.BEHIND.);
#226=AXIS2_PLACEMENT_3D('placement',#333,#260,#261);
#227=AXIS2_PLACEMENT_3D('',#334,#262,#263);
#228=AXIS2_PLACEMENT_3D('',#336,#264,#265);
#229=AXIS2_PLACEMENT_3D('',#339,#266,#267);
#230=AXIS2_PLACEMENT_3D('',#340,#268,#269);
#231=AXIS2_PLACEMENT_3D('',#341,#270,#271);
#232=AXIS2_PLACEMENT_3D('',#344,#272,#273);
#233=AXIS2_PLACEMENT_3D('',#346,#275,#276);
#234=AXIS2_PLACEMENT_3D('',#347,#277,#278);
#235=AXIS2_PLACEMENT_3D('',#350,#279,#280);
#236=AXIS2_PLACEMENT_3D('',#352,#281,#282);
#237=AXIS2_PLACEMENT_3D('',#354,#284,#285);
#238=AXIS2_PLACEMENT_3D('',#355,#286,#287);
#239=AXIS2_PLACEMENT_3D('',#358,#288,#289);
#240=AXIS2_PLACEMENT_3D('',#359,#290,#291);
#241=AXIS2_PLACEMENT_3D('',#360,#292,#293);
#242=AXIS2_PLACEMENT_3D('',#361,#294,#295);
#243=AXIS2_PLACEMENT_3D('',#362,#296,#297);
#244=AXIS2_PLACEMENT_3D('',#365,#298,#299);
#245=AXIS2_PLACEMENT_3D('',#366,#300,#301);
#246=AXIS2_PLACEMENT_3D('',#369,#303,#304);
#247=AXIS2_PLACEMENT_3D('',#370,#305,#306);
#248=AXIS2_PLACEMENT_3D('',#373,#307,#308);
#249=AXIS2_PLACEMENT_3D('',#375,#309,#310);
#250=AXIS2_PLACEMENT_3D('',#377,#312,#313);
#251=AXIS2_PLACEMENT_3D('',#378,#314,#315);
#252=AXIS2_PLACEMENT_3D('',#381,#316,#317);
#253=AXIS2_PLACEMENT_3D('',#382,#318,#319);
#254=AXIS2_PLACEMENT_3D('',#383,#320,#321);
#255=AXIS2_PLACEMENT_3D('',#386,#322,#323);
#256=AXIS2_PLACEMENT_3D('',#387,#324,#325);
#257=AXIS2_PLACEMENT_3D('',#388,#326,#327);
#258=AXIS2_PLACEMENT_3D('',#389,#328,#329);
#259=AXIS2_PLACEMENT_3D('',#390,#330,#331);
#260=DIRECTION('axis',(0.,0.,1.));
#261=DIRECTION('refdir',(1.,0.,0.));
#262=DIRECTION('center_axis',(0.,1.,0.));
#263=DIRECTION('ref_axis',(0.,0.,1.));
#264=DIRECTION('center_axis',(0.,1.,0.));
#265=DIRECTION('ref_axis',(-1.,0.,0.));
#266=DIRECTION('center_axis',(0.,-1.,0.));
#267=DIRECTION('ref_axis',(-1.,0.,0.));
#268=DIRECTION('center_axis',(0.,-1.,0.));
#269=DIRECTION('ref_axis',(-1.,0.,0.));
#270=DIRECTION('center_axis',(0.,-1.,0.));
#271=DIRECTION('ref_axis',(-1.,0.,0.));
#272=DIRECTION('center_axis',(0.,-1.,0.));
#273=DIRECTION('ref_axis',(-1.,0.,0.));
#274=DIRECTION('',(-0.4226182617407,0.90630778703665,5.17558101501966E-17));
#275=DIRECTION('center_axis',(0.,-1.,0.));
#276=DIRECTION('ref_axis',(-1.,0.,0.));
#277=DIRECTION('center_axis',(0.,1.,0.));
#278=DIRECTION('ref_axis',(1.,0.,0.));
#279=DIRECTION('center_axis',(0.,1.,0.));
#280=DIRECTION('ref_axis',(-1.,0.,-1.22464679914735E-16));
#281=DIRECTION('center_axis',(0.,1.,0.));
#282=DIRECTION('ref_axis',(-1.,0.,-1.22464679914735E-16));
#283=DIRECTION('',(0.,1.,0.));
#284=DIRECTION('center_axis',(0.,1.,0.));
#285=DIRECTION('ref_axis',(-1.,0.,-1.22464679914735E-16));
#286=DIRECTION('center_axis',(0.,-1.,0.));
#287=DIRECTION('ref_axis',(0.,0.,1.));
#288=DIRECTION('center_axis',(0.,-1.,0.));
#289=DIRECTION('ref_axis',(-1.,0.,-1.22464679914735E-16));
#290=DIRECTION('center_axis',(0.,-1.,0.));
#291=DIRECTION('ref_axis',(-1.,0.,-1.22464679914735E-16));
#292=DIRECTION('center_axis',(1.,0.,-1.22464679914735E-16));
#293=DIRECTION('ref_axis',(-1.22464679914735E-16,0.,-1.));
#294=DIRECTION('center_axis',(0.,1.,0.));
#295=DIRECTION('ref_axis',(0.,0.,1.));
#296=DIRECTION('center_axis',(0.,1.,0.));
#297=DIRECTION('ref_axis',(-1.,0.,0.));
#298=DIRECTION('center_axis',(0.,-1.,0.));
#299=DIRECTION('ref_axis',(-1.,0.,0.));
#300=DIRECTION('center_axis',(0.,-1.,0.));
#301=DIRECTION('ref_axis',(-1.,0.,0.));
#302=DIRECTION('',(-0.4226182617407,-0.90630778703665,5.17558101501966E-17));
#303=DIRECTION('center_axis',(0.,1.,0.));
#304=DIRECTION('ref_axis',(-1.,0.,0.));
#305=DIRECTION('center_axis',(0.,1.,0.));
#306=DIRECTION('ref_axis',(1.,0.,0.));
#307=DIRECTION('center_axis',(0.,1.,0.));
#308=DIRECTION('ref_axis',(-1.,0.,-1.22464679914735E-16));
#309=DIRECTION('center_axis',(0.,1.,0.));
#310=DIRECTION('ref_axis',(-1.,0.,-1.22464679914735E-16));
#311=DIRECTION('',(0.,-1.,0.));
#312=DIRECTION('center_axis',(0.,1.,0.));
#313=DIRECTION('ref_axis',(-1.,0.,-1.22464679914735E-16));
#314=DIRECTION('center_axis',(0.,1.,0.));
#315=DIRECTION('ref_axis',(0.,0.,1.));
#316=DIRECTION('center_axis',(0.,1.,0.));
#317=DIRECTION('ref_axis',(-1.,0.,0.));
#318=DIRECTION('center_axis',(0.,1.,0.));
#319=DIRECTION('ref_axis',(-1.,0.,0.));
#320=DIRECTION('center_axis',(0.,1.,0.));
#321=DIRECTION('ref_axis',(0.,0.,1.));
#322=DIRECTION('center_axis',(0.,-1.,0.));
#323=DIRECTION('ref_axis',(-1.,0.,-1.22464679914735E-16));
#324=DIRECTION('center_axis',(-1.,0.,1.22464679914735E-16));
#325=DIRECTION('ref_axis',(-1.22464679914735E-16,0.,-1.));
#326=DIRECTION('center_axis',(0.,-1.,0.));
#327=DIRECTION('ref_axis',(-1.,0.,-1.22464679914735E-16));
#328=DIRECTION('center_axis',(0.,1.,0.));
#329=DIRECTION('ref_axis',(0.,0.,1.));
#330=DIRECTION('center_axis',(0.,1.,0.));
#331=DIRECTION('ref_axis',(-1.,0.,0.));
#332=DIRECTION('',(0.,-1.,0.));
#333=CARTESIAN_POINT('',(0.,0.,0.));
#334=CARTESIAN_POINT('Origin',(0.,-0.625,0.));
#335=CARTESIAN_POINT('',(0.39226077025535,-0.625,-4.8038089672429E-17));
#336=CARTESIAN_POINT('Origin',(0.,-0.625,0.));
#337=CARTESIAN_POINT('',(-0.375,-0.625,0.));
#338=CARTESIAN_POINT('',(0.375,-0.625,-4.59242549680257E-17));
#339=CARTESIAN_POINT('Origin',(0.,-0.625,0.));
#340=CARTESIAN_POINT('Origin',(0.,-0.625,0.));
#341=CARTESIAN_POINT('Origin',(0.,-0.64,0.));
#342=CARTESIAN_POINT('',(0.40625,-0.655,4.97512762153612E-17));
#343=CARTESIAN_POINT('',(-0.40625,-0.655,4.97512762153612E-17));
#344=CARTESIAN_POINT('Origin',(0.,-0.655,0.));
#345=CARTESIAN_POINT('',(0.399255385127675,-0.64,-4.88946829438951E-17));
#346=CARTESIAN_POINT('Origin',(0.,-0.655,0.));
#347=CARTESIAN_POINT('Origin',(0.,-0.625,0.));
#348=CARTESIAN_POINT('',(0.40625,-1.103,0.));
#349=CARTESIAN_POINT('',(-4.97512762153612E-17,-1.103,-0.40625));
#350=CARTESIAN_POINT('Origin',(0.,-1.103,0.));
#351=CARTESIAN_POINT('',(-0.40625,-1.103,4.97512762153612E-17));
#352=CARTESIAN_POINT('Origin',(0.,-1.103,0.));
#353=CARTESIAN_POINT('',(-0.40625,-0.625,4.97512762153612E-17));
#354=CARTESIAN_POINT('Origin',(0.,-1.103,0.));
#355=CARTESIAN_POINT('Origin',(0.,-1.103,0.));
#356=CARTESIAN_POINT('',(0.38425,-1.125,9.41141065144741E-17));
#357=CARTESIAN_POINT('',(-4.70570532572371E-17,-1.125,-0.38425));
#358=CARTESIAN_POINT('Origin',(0.,-1.125,0.));
#359=CARTESIAN_POINT('Origin',(0.,-1.125,0.));
#360=CARTESIAN_POINT('Origin',(-4.70570532572371E-17,-1.103,-0.38425));
#361=CARTESIAN_POINT('Origin',(0.,-1.125,0.));
#362=CARTESIAN_POINT('Origin',(0.,0.64,0.));
#363=CARTESIAN_POINT('',(0.40625,0.655,4.97512762153612E-17));
#364=CARTESIAN_POINT('',(-0.40625,0.655,4.97512762153612E-17));
#365=CARTESIAN_POINT('Origin',(0.,0.655,0.));
#366=CARTESIAN_POINT('Origin',(0.,0.655,0.));
#367=CARTESIAN_POINT('',(0.39226077025535,0.625,-4.8038089672429E-17));
#368=CARTESIAN_POINT('',(0.399255385127675,0.64,-4.88946829438951E-17));
#369=CARTESIAN_POINT('Origin',(0.,0.625,0.));
#370=CARTESIAN_POINT('Origin',(0.,0.625,0.));
#371=CARTESIAN_POINT('',(0.40625,1.103,0.));
#372=CARTESIAN_POINT('',(-4.97512762153612E-17,1.103,-0.40625));
#373=CARTESIAN_POINT('Origin',(0.,1.103,0.));
#374=CARTESIAN_POINT('',(-0.40625,1.103,4.97512762153612E-17));
#375=CARTESIAN_POINT('Origin',(0.,1.103,0.));
#376=CARTESIAN_POINT('',(-0.40625,0.625,4.97512762153612E-17));
#377=CARTESIAN_POINT('Origin',(0.,1.103,0.));
#378=CARTESIAN_POINT('Origin',(0.,0.625,0.));
#379=CARTESIAN_POINT('',(-0.375,0.625,0.));
#380=CARTESIAN_POINT('',(0.375,0.625,-4.59242549680257E-17));
#381=CARTESIAN_POINT('Origin',(0.,0.625,0.));
#382=CARTESIAN_POINT('Origin',(0.,0.625,0.));
#383=CARTESIAN_POINT('Origin',(0.,1.103,0.));
#384=CARTESIAN_POINT('',(0.38425,1.125,9.41141065144741E-17));
#385=CARTESIAN_POINT('',(-4.70570532572371E-17,1.125,-0.38425));
#386=CARTESIAN_POINT('Origin',(0.,1.125,0.));
#387=CARTESIAN_POINT('Origin',(-4.70570532572371E-17,1.103,-0.38425));
#388=CARTESIAN_POINT('Origin',(0.,1.125,0.));
#389=CARTESIAN_POINT('Origin',(0.,1.125,0.));
#390=CARTESIAN_POINT('Origin',(0.,0.,0.));
#391=CARTESIAN_POINT('',(0.375,0.,-4.59242549680257E-17));
#392=UNCERTAINTY_MEASURE_WITH_UNIT(LENGTH_MEASURE(0.000393700787401575),
#397,'DISTANCE_ACCURACY_VALUE',
'Maximum model space distance between geometric entities at asserted c
onnectivities');
#393=UNCERTAINTY_MEASURE_WITH_UNIT(LENGTH_MEASURE(0.000393700787401575),
#397,'DISTANCE_ACCURACY_VALUE',
'Maximum model space distance between geometric entities at asserted c
onnectivities');
#394=(
GEOMETRIC_REPRESENTATION_CONTEXT(3)
GLOBAL_UNCERTAINTY_ASSIGNED_CONTEXT((#392))
GLOBAL_UNIT_ASSIGNED_CONTEXT((#397,#401,#402))
REPRESENTATION_CONTEXT('','3D')
);
#395=(
GEOMETRIC_REPRESENTATION_CONTEXT(3)
GLOBAL_UNCERTAINTY_ASSIGNED_CONTEXT((#393))
GLOBAL_UNIT_ASSIGNED_CONTEXT((#397,#401,#402))
REPRESENTATION_CONTEXT('','3D')
);
#396=DIMENSIONAL_EXPONENTS(1.,0.,0.,0.,0.,0.,0.);
#397=(
CONVERSION_BASED_UNIT('inch',#400)
LENGTH_UNIT()
NAMED_UNIT(#396)
);
#398=(
LENGTH_UNIT()
NAMED_UNIT(*)
SI_UNIT(.MILLI.,.METRE.)
);
#399=(
LENGTH_UNIT()
NAMED_UNIT(*)
SI_UNIT(.CENTI.,.METRE.)
);
#400=LENGTH_MEASURE_WITH_UNIT(LENGTH_MEASURE(25.4),#398);
#401=(
NAMED_UNIT(*)
PLANE_ANGLE_UNIT()
SI_UNIT($,.RADIAN.)
);
#402=(
NAMED_UNIT(*)
SI_UNIT($,.STERADIAN.)
SOLID_ANGLE_UNIT()
);
#403=SHAPE_DEFINITION_REPRESENTATION(#404,#405);
#404=PRODUCT_DEFINITION_SHAPE('',$,#407);
#405=SHAPE_REPRESENTATION('',(#226),#394);
#406=PRODUCT_DEFINITION_CONTEXT('part definition',#411,'design');
#407=PRODUCT_DEFINITION('Part4','Part4',#408,#406);
#408=PRODUCT_DEFINITION_FORMATION('',$,#413);
#409=PRODUCT_RELATED_PRODUCT_CATEGORY('Part4','Part4',(#413));
#410=APPLICATION_PROTOCOL_DEFINITION('international standard',
'automotive_design',2009,#411);
#411=APPLICATION_CONTEXT(
'Core Data for Automotive Mechanical Design Process');
#412=PRODUCT_CONTEXT('part definition',#411,'mechanical');
#413=PRODUCT('Part4','Part4',$,(#412));
#414=PRESENTATION_STYLE_ASSIGNMENT((#417));
#415=PRESENTATION_STYLE_ASSIGNMENT((#418));
#416=PRESENTATION_STYLE_ASSIGNMENT((#419));
#417=SURFACE_STYLE_USAGE(.BOTH.,#426);
#418=SURFACE_STYLE_USAGE(.BOTH.,#427);
#419=SURFACE_STYLE_USAGE(.BOTH.,#428);
#420=SURFACE_STYLE_RENDERING_WITH_PROPERTIES($,#438,(#423));
#421=SURFACE_STYLE_RENDERING_WITH_PROPERTIES($,#439,(#424));
#422=SURFACE_STYLE_RENDERING_WITH_PROPERTIES($,#440,(#425));
#423=SURFACE_STYLE_TRANSPARENT(0.);
#424=SURFACE_STYLE_TRANSPARENT(0.);
#425=SURFACE_STYLE_TRANSPARENT(0.);
#426=SURFACE_SIDE_STYLE('',(#429,#420));
#427=SURFACE_SIDE_STYLE('',(#430,#421));
#428=SURFACE_SIDE_STYLE('',(#431,#422));
#429=SURFACE_STYLE_FILL_AREA(#432);
#430=SURFACE_STYLE_FILL_AREA(#433);
#431=SURFACE_STYLE_FILL_AREA(#434);
#432=FILL_AREA_STYLE('',(#435));
#433=FILL_AREA_STYLE('',(#436));
#434=FILL_AREA_STYLE('',(#437));
#435=FILL_AREA_STYLE_COLOUR('',#438);
#436=FILL_AREA_STYLE_COLOUR('',#439);
#437=FILL_AREA_STYLE_COLOUR('',#440);
#438=COLOUR_RGB('',0.749019607843137,0.749019607843137,0.749019607843137);
#439=COLOUR_RGB('',0.968627450980392,0.933333333333333,0.792156862745098);
#440=COLOUR_RGB('',0.96078431372549,0.96078431372549,0.96078431372549);
ENDSEC;
END-ISO-10303-21;
